Mi Corazon Encantado, Dragon Ball Gt (tablatura) (ver 3)

Autor: mayork998 | 50485 visualizaciones



ES MI PRIMERA CANCION, ESPERO QUE LES GUSTE.

e|--3--3--------3--5--3-----------------------------------|
B|--------5--6-----------6--5--3--------------------------|
G|--------------------------------------------------------|
D|--------------------------------------------------------|
A|--------------------------------------------------------|
E|--------------------------------------------------------|

e|--------------------------------------------------------|
B|--5--5--------5--6--5-----------------------------------|
G|--------5--7-----------7--5--4--2-----------------------|
D|--------------------------------------------------------|
A|--------------------------------------------------------|
E|--------------------------------------------------------|

e|--------5--3--------------------------------------------|
B|-----------------3--5--6--5--3-----5--6--5--3-----------|
G|-2-2-5--------5-----------------5-----------------------|
D|--------------------------------------------------------|
A|--------------------------------------------------------|
E|--------------------------------------------------------|

e|--3--3--------3--5--3-----------------------------------|
B|--------5--6-----------6--6--5--3-----------------------|
G|--------------------------------------------------------|
D|--------------------------------------------------------|
A|--------------------------------------------------------|
E|--------------------------------------------------------|

e|--------------------------------------------------------|
B|--5--5--------5--6--5-----------------------------------|
G|--------5--7-----------7--5--4--2-----------------------|
D|--------------------------------------------------------|
A|--------------------------------------------------------|
E|--------------------------------------------------------|

e|----------5--3------------------------------------------|
B|------------------3--5--6--5--3-----5----3--3--2--3-----|
G|--5--5--7------5-----------------5----------------------|
D|--------------------------------------------------------|
A|--------------------------------------------------------|
E|--------------------------------------------------------|



e|--8--8--8--8--8--8--8--8---7--5--7--8-------------------|
B|--------------------------------------------------------|
G|--------------------------------------------------------|
D|--------------------------------------------------------|
A|--------------------------------------------------------|
E|--------------------------------------------------------|


e|--5--5--5--5--5--5--5--5---3--2--3--5-------------------|
B|--------------------------------------------------------|
G|--------------------------------------------------------|
D|--------------------------------------------------------|
A|--------------------------------------------------------|
E|--------------------------------------------------------| 

e|--3--3--3--3--3--3--3--3---1--0--1--3-------------------|
B|----------------------------------------1---------------|
G|--------------------------------------------------------|
D|--------------------------------------------------------|
A|--------------------------------------------------------|
E|--------------------------------------------------------|





Calificar esta versión:
Aviso: Este fichero es trabajo propio de su transcriptor y representa su interpretación personal de la canción. El material contenido en esta página es para exclusivo uso privado, por lo que se prohibe su reproducción o retransmisión, así como su uso para fines comerciales.