Mi Corazon Encantado, Dragon Ball Gt (tablatura) (ver 6)

Autor: DrumsC | 35141 visualizaciones



Intro
--3-3------3-5-3-----------------------------------------|
-------5-6---------6-5----5-5------5-6-5--------------|
--------------------------7-------5-7--------7-5-4-2---|
-------------------------------------------------------------|
-------------------------------------------------------------|
-------------------------------------------------------------|


------5-3--------------------------------------------|
--------------3-5-6-5-3---5--1-0-1--------------|
-2-5------5--------------5-------------------------|
------------------------------------------------------|
------------------------------------------------------|
------------------------------------------------------|

-8-8-8-8-8-6-4-6-8-6--6-6-6-6-6-4-3-4-6-4---|
---------------------------------------------------|
---------------------------------------------------|
---------------------------------------------------|
---------------------------------------------------|
---------------------------------------------------|

-4-4-4-3---3------------3--3-4-6-8--8-8-8-8-8-6-4-6-8-6-|
------------6---6-6-4-6--------------------------|
-----------------------------------------------------|
-----------------------------------------------------|
-----------------------------------------------------|
-----------------------------------------------------|

-6-6-8-10-10-11-6-4-3-4--4-6-4-3-3--3-15-13-12-----|
---------------------------------------------------|
---------------------------------------------------|
---------------------------------------------------|
---------------------------------------------------|
---------------------------------------------------|

-12-13-12-11---4-6-8-8-8-8-8-8-6-10-8-6-4-3-3-3-3-3-3-|
------------------------------------------------------|
------------------------------------------------------|
------------------------------------------------------|
------------------------------------------------------|
------------------------------------------------------|


-3-4-6-8-10--10-8-10-10-10-10-8--10-12--12-12-10-12-14--b
--------------------------------------------------------|
--------------------------------------------------------|
--------------------------------------------------------|
--------------------------------------------------------|
--------------------------------------------------------|

Final

--3-3------3-5-3-----------------------------------------|
-------5-6---------6-5----5-5------5-6-5--------------|
--------------------------7-------5-7--------7-5-4-2---|
-------------------------------------------------------------|
-------------------------------------------------------------|
-------------------------------------------------------------|


------5-3--------------------------------------------|
--------------3-5-6-5-3---5--1-0-1--------------|
-2-5------5--------------5-------------------------|
------------------------------------------------------|
------------------------------------------------------|
------------------------------------------------------|





Calificar esta versión:
Aviso: Este fichero es trabajo propio de su transcriptor y representa su interpretación personal de la canción. El material contenido en esta página es para exclusivo uso privado, por lo que se prohibe su reproducción o retransmisión, así como su uso para fines comerciales.