Iron Man, Black Sabbath (tablatura) (ver 6)

Autor: [email protected] | 17942 visualizaciones



NOTE Q LAS OTRAS TABLATURAS ERAN DIFICILES HACI Q HICE UNA FACIL Y Q SUENA BIEN 

|-----------------------------------------------------------------|
|-----------------------------------------------------------------|
|-----------------------------------------------------------------|
|-----------------------------------------------------------------|
|-------5-5--7-7-----10-9-10-9-10-9-9--5-5--7---------------------|
|-----7-----------------------------------------------------------|


|-----------------------------------------------------------------|
|-----------------------------------------------------------------|
|-----------------------------------------------------------------|
|-----------------------------------------------------------------|
|-----------5-----------------------------------------------------|
|---7-7-7-----6--5-5-5-5-5-5-5-5-5-5-5-5--------------------------|


|-----------------------------------------------------------------|
|-----------------------------------------------------------------|
|-----------------------------------------------------------------|
|-----------------------------------------------------------------|
|-------5-5--7-7-----10-9-10-9-10-9-9--5-5--7---------------------|
|-----7-----------------------------------------------------------|





Calificar esta versión:
Aviso: Este fichero es trabajo propio de su transcriptor y representa su interpretación personal de la canción. El material contenido en esta página es para exclusivo uso privado, por lo que se prohibe su reproducción o retransmisión, así como su uso para fines comerciales.
Más versiones de Iron Man, Black Sabbath
Iron Man
acordes
Iron Man
tablatura
Iron Man (ver 2)
tablatura
Iron Man (ver 3)
tablatura
Iron Man (ver 4)
tablatura
Iron Man (ver 5)
tablatura
Iron Man (ver 6)
tablatura
Iron Man (ver 7)
tablatura
Iron Man
bajo
Iron Man (ver 2)
bajo
Descubre más canciones de Black Sabbath