Iron Man, Black Sabbath (tablatura) (ver 5)

Autor: pitufino22 | 40223 visualizaciones



IRON MAN de Black Sabbath 
G--------------------------------- 
D--------------------------------- 
A-2-5--5-7-7--109-109-109-5-5-7-7- 
E--------------------------------- (x7) 

G--------------------------------- 
D--------------------------------- 
A-----5--------------------------- 
E-7-7---7-7-6-555-04567----------- (x3) 

G--------------------------------- 
D--------------------------------- 
A-2-5--5-7-7--109-109-109-5-5-7-7- 
E--------------------------------- (x4) 

G--------------------------------------- 
D-------------------789------------789-- 
A-7---5-----567-789--------567-789------ 
E--------77-------------77-------------- (x2)





Calificar esta versión:
Aviso: Este fichero es trabajo propio de su transcriptor y representa su interpretación personal de la canción. El material contenido en esta página es para exclusivo uso privado, por lo que se prohibe su reproducción o retransmisión, así como su uso para fines comerciales.
Más versiones de Iron Man, Black Sabbath
Iron Man
acordes
Iron Man
tablatura
Iron Man (ver 2)
tablatura
Iron Man (ver 3)
tablatura
Iron Man (ver 4)
tablatura
Iron Man (ver 5)
tablatura
Iron Man (ver 6)
tablatura
Iron Man (ver 7)
tablatura
Iron Man
bajo
Iron Man (ver 2)
bajo
Descubre más canciones de Black Sabbath