Iron Man, Black Sabbath (tablatura) (ver 3)

Autor: maxi88 | 28896 visualizaciones



     tempo=69                                                                
     Q         H         Q       W                     Q       H         Q     
E||---------------------------|-------------------||--------------------------|
B||---------------------------|-------------------||--------------------------|
G||---------------------------|-------------------||*-------------------------|
D||---------------------------|-------------------||*-------------------------|
A||---------------------------|-------------------||--------------------------|
E||--0br~------0~--------L----|--L----------------||---0br~----0~--------L----|


  W                     Q    E  E  E   E  Q     
--------------------||-------------------------|
--------------------||-------------------------|
-------------------*||-------------------------|
-------------------*||--4----7-----7S--9--9----|
--------------------||--2----5-----5S--7--7----|
--L-----------------||-------------------------|


   S   S  S   S  E   E  E   E  Q       Q    E  E  E   E  Q     
------------------------------------|-------------------------|
------------------------------------|-------------------------|
------------------------------------|-------------------------|
--12S-11-12S-11-12S--7--7S--9--9----|--4----7-----7S--9--9----|
--10S--9-10S--9-10S--5--5S--7--7----|--2----5-----5S--7--7----|
------------------------------------|-------------------------|


                                         tempo=76                   
   S   S  S   S  E   E  E   E  Q         Q        Q    E   E  Q     
------------------------------------||-----------------------------|
------------------------------------||-----------------------------|
------------------------------------||*----------------------------|
--12S-11-12S-11-12S--7--7S--9--9----||*----------------------------|
--10S--9-10S--9-10S--5--5S--7--7----||---2--------5----5h--7--7----|
------------------------------------||-----------------------------|


  S  S S  S S  S E  E   E  Q        Q    Q    E   E  Q     
---------------------------------|------------------------|
---------------------------------|------------------------|
---------------------------------|------------------------|
--5p-4-5p-4-5p-4-----------------|------------------------|
-----------------5--5h--7--7S----|--2----5----5h--7--7----|
---------------------------------|------------------------|


  S  S S  S S  S E  E   E  Q        Q    E  E  E   E  Q     
---------------------------------|-------------------------|
---------------------------------|-------------------------|
---------------------------------|-------------------------|
--5p-4-5p-4-5p-4-----------------|--4----7-----7S--9--9----|
-----------------5--5h--7--7S----|--2----5-----5S--7--7----|
---------------------------------|-------------------------|


   S   S  S   S  E   E  E   E  E.  S    Q    Q    E   E  Q     
-------------------------------------|------------------------|
-------------------------------------|------------------------|
-------------------------------------|------------------------|
--12S-11-12S-11-12S--7--7S--9--9-----|------------------------|
--10S--9-10S--9-10S--5--5S--7--7-----|--2----5----5h--7--7----|
-----------------------------------3-|------------------------|


   S  S  S  S  S  S E  E   E  Q        Q    Q    E   E  Q     
------------------------------------|------------------------|
------------------------------------|------------------------|
------------------------------------|------------------------|
------------------------------------|------------------------|
--------------------5--5h--7--7S----|--2----5----5h--7--7----|
--15-14-15-14-15-14-----------------|------------------------|


  S  S S  S S  S E  E   E  Q          E  Q    E   E  Q    E   
---------------------------------||--------------------------|
---------------------------------||--------------------------|
---------------------------------||*-------------------------|
--5p-4-5p-4-5p-4-----------------||*-------------------------|
-----------------5--5h--7--7S----||-----------5~--L----------|
---------------------------------||---7--7-----------7----6--|


  E  E  E.  S E  E  E  E       E  Q    E   E  Q    E     E  E  E  E  H         
---------------------------||-------------------------|-----------------------|
---------------------------||-------------------------|-----------------------|
--------------------------*||-------------------------|-----------------------|
--------------------------*||-------------------------|-----------------------|
---------------------------||----------5~--L----------|-----------------------|
--5--5--5---0-4--5--5--6---||--7--7-----------7----6--|--5--5--5--------------|


  Q    E  E  E   E  Q        S   S  S   S  E   E  E   E  E  S S  
-------------------------|--------------------------------------|
-------------------------|--------------------------------------|
-------------------------|--------------------------------------|
--4----7-----7S--9--9----|--12S-11-12S-11-12S--7--7S--9--9------|
--2----5-----5S--7--7----|--10S--9-10S--9-10S--5--5S--7--7------|
-------------------------|----------------------------------0-0-|


  Q    E  E  E   E  Q        S   S  S   S  E   E  E   E  E  E   
-------------------------|-------------------------------------|
-------------------------|-------------------------------------|
-------------------------|-------------------------------------|
--4----7-----7S--9--9----|--12S-11-12S-11-12S--7--7S--9--------|
--2----5-----5S--7--7----|--10S--9-10S--9-10S--5--5S--7--------|
-------------------------|-------------------------------4--2--|


  Q    Q    E   E  Q       S  S S  S S  S E  E   E  Q      
------------------------|---------------------------------|
------------------------|---------------------------------|
------------------------|---------------------------------|
------------------------|--5p-4-5p-4-5p-4-0---------------|
--2----5----5h--7--7----|-----------------0--5h--7--7S----|
------------------------|-----------------0---------------|


  Q    Q    E   E  Q       S  S S  S S  S E  E   E  Q        W                 
------------------------|---------------------------------|-------------------|
------------------------|---------------------------------|-------------------|
------------------------|---------------------------------|-------------------|
------------------------|--5p-4-5p-4-5p-4-0---------------|--9----------------|
--2----5----5h--7--7----|--------------------5h--7--7S----|--7----------------|
------------------------|---------------------------------|-------------------|


  W                   E  E  S S E  S S E  S S E     E  E  S S E  S S E  S S E   
-------------------|-----------------------------|-----------------------------|
-------------------|-----------------------------|-----------------------------|
-------------------|-----------------------------|-----------------------------|
--7----------------|----------------------7-8-9--|----------------------7-8-9--|
--5----------------|--9--9----5-7--7-8-9---------|--9--9----5-7--7-8-9---------|
-------------------|--7--7--7--------------------|--7--7--7--------------------|


  W                   W                   E  E  S S E  S S E  S S E   
-------------------|-------------------|-----------------------------|
-------------------|-------------------|-----------------------------|
-------------------|-------------------|-----------------------------|
--9----------------|--7----------------|----------------------7-8-9--|
--7----------------|--5----------------|--9--9----5-7--7-8-9---------|
-------------------|-------------------|--7--7--7--------------------|


  E  E  S S E  S S E  S S E     Q    E  E  E   E  Q     
-----------------------------|-------------------------|
-----------------------------|-------------------------|
-----------------------------|-------------------------|
----------------------7-8-9--|--4----7-----7S--9--9----|
--9--9----5-7--7-8-9---------|--2----5-----5S--7--7----|
--7--7--7--------------------|-------------------------|


   S   S  S   S  E   E  E   E  Q        Q    Q    E   E  Q     
-------------------------------------|------------------------|
-------------------------------------|------------------------|
-------------------------------------|------------------------|
--12S-11-12S-11-12S--7--7S--9--9S----|------------------------|
--10S--9-10S--9-10S--5--5S--7--7S----|--2----5----5h--7--7----|
-------------------------------------|------------------------|


  S  S S  S S  S E  E   E  Q        Q    Q    E   E  Q     
---------------------------------|------------------------|
---------------------------------|------------------------|
---------------------------------|------------------------|
--5p-4-5p-4-5p-4-----------------|------------------------|
-----------------5--5h--7--7S----|--2----5----5h--7--7----|
---------------------------------|------------------------|


  S  S S  S S  S E  E   E  Q        W                   W                 
---------------------------------|-------------------|-------------------|
---------------------------------|-------------------|-------------------|
---------------------------------|-------------------|-------------------|
--5p-4-5p-4-5p-4-----------------|--9----------------|--7----------------|
-----------------0--5h--7--7S----|--7----------------|--5----------------|
---------------------------------|-------------------|-------------------|


  E  E  S S E  S S E  S S E     E  E  S S E  S S E  S S E     W                 
-----------------------------|-----------------------------|-------------------|
-----------------------------|-----------------------------|-------------------|
-----------------------------|-----------------------------|-------------------|
----------------------7-8-9--|----------------------7-8-9--|--9----------------|
--9--9----5-7--7-8-9---------|--9--9----5-7--7-8-9---------|--7----------------|
--7--7--7--------------------|--7--7--7--------------------|-------------------|


  W                   E  E  S S E  S S E  S S E     E  E  S S E  S S E  S S E   
-------------------|-----------------------------|-----------------------------|
-------------------|-----------------------------|-----------------------------|
-------------------|-----------------------------|-----------------------------|
--7----------------|----------------------7-8-9--|----------------------7-8-9--|
--5----------------|--9--9----5-7--7-8-9---------|--9--9----5-7--7-8-9---------|
-------------------|--7--7--7--------------------|--7--7--7--------------------|


  S S S S S S S S S E  S S  S E     S S S S S S S S S E  S S  S E   
---------------------------------|---------------------------------|
---------------------------------|---------------------------------|
--6-4----------------------------|--6-4----------------------------|
--------6---5---4---2------------|--------6---5---4---2------------|
-----------------------2-2h-4-4--|-----------------------2-2h-4-4--|
---------------------------------|---------------------------------|


  double time=164                                                        
  E               E  E  S  S S  S E  E  E     E   E  E  E  E   E  E  E   
-------------------------------------------|----------------------------|
-------------------------------------------|----------------------5-----|
-------------------------------------------|---------4--4--4h--6-----6--|
---------------------2--2h-4-4p-2----2--4--|--4h--6---------------------|
--2---------------4---------------4--------|----------------------------|
-------------------------------------------|----------------------------|


  S  S E  E  E  S  S E  E   E     Q    E   E   E   E   S  S  E   
-------------------------------|-------------------9------------|
----------5--5-----------------|-------------------9--12p-9-----|
--6p-4----------6p-4----4h--6--|--6----9--11--11b-----------11--|
-------6-------------6---------|--------------------------------|
----------0--0-----------------|--------------------------------|
-------------------------------|--------------------------------|


  E  E  E   E   E  E  E    E     E   E   E  E   S  S  S  S E   S  S  
------------------------------|-------------9-----------------------|
--9---------------------------|----------------12p-9-------9--12p-9-|
-----9--9b--L-----------------|--9--11b--L-----------11p-9----------|
---------------11--9--9h--11--|-------------------------------------|
------------------------------|-------------------------------------|
------------------------------|-------------------------------------|


   E  E   S  S  S  S E  E   Q        E   E  E  E   Q      E     E   
------------------------9--12b----|--9------------12b----12br--12--|
------9--12p-9-------9-----12b----|-----12--9--9-------------------|
--11-----------11p-9--------------|--------------------------------|
----------------------------------|--------------------------------|
----------------------------------|--------------------------------|
----------------------------------|--------------------------------|


   E     E   S  S  E  E   E   Q         E   E   S  S  E  E  E   S  S  E   
--12br--12--12p-9-----9-------------|-------9---------------9------------|
------------------12-----12--12b----|--12b-----12p-9-----9-----12p-9-----|
------------------------------------|----------------11--------------11--|
------------------------------------|------------------------------------|
------------------------------------|------------------------------------|
------------------------------------|------------------------------------|


   S  S  E  E  E   S  S  E  E    E     E  E   S  S  E  E    E  E  E   
------------------------------------|--------------------------------|
------------------------------------|--------------------------------|
--11p-9-----9--9--------------------|--9--9--------------------9-----|
--------11--------11p-9-----9h--11--|--------11p-9-----9h--11--9--9--|
------------------------11----------|--------------11----------------|
------------------------------------|--------------------------------|


     Q.        Q.        Q       E     Q.        Q       Q     
------------------------------|-------------------------------|
------------------------------|-------------------------------|
------------------------------|-------------------------------|
--9g11------9g11------9g11----|--L--9g11------9g11----9g11----|
------------------------------|-------------------------------|
------------------------------|-------------------------------|


     Q.        Q.        Q       E     Q.        Q       Q     
------------------------------|-------------------------------|
------------------------------|-------------------------------|
------------------------------|-------------------------------|
--9g11------9g11------9g11----|--L--9g11------9g11----9g11----|
------------------------------|-------------------------------|
------------------------------|-------------------------------|


  tempo= 76                                                                 
  S         S S S S S S S S E  S S  S E     S S S S S S S S S E  S S  S E   
-----------------------------------------|---------------------------------|
-----------------------------------------|---------------------------------|
--6---------4----------------------------|--6-4----------------------------|
----------------6---5---4---2------------|--------6---5---4---2------------|
-------------------------------2-2h-4-4--|-----------------------2-2h-4-4--|
-----------------------------------------|---------------------------------|


    E  E  S S E  S S E  S S E     E  E  S S E  S S E  S S E     
|------------------------------|------------------------------||
|------------------------------|------------------------------||
|*-----------------------------|-----------------------------*||
|*----------------------7-8-9--|----------------------7-8-9--*||
|---9--9----5-7--7-8-9---------|--9--9----5-7--7-8-9----------||
|---7--7--7--------------------|--7--7--7---------------------||


   Q    E  E  E   E  Q        S   S  S   S  E   E  E   E  Q        
--------------------------|--------------------------------------||
--------------------------|--------------------------------------||
*-------------------------|-------------------------------------*||
*--4----7-----7S--9--9----|--12S-11-12S-11-12S--7--7S--9--9S----*||
---2----5-----5S--7--7----|--10S--9-10S--9-10S--5--5S--7--7S-----||
--------------------------|--------------------------------------||


  Q    Q    E   E  Q       S  S S  S S  S E  E   E  Q      
------------------------|---------------------------------|
------------------------|---------------------------------|
------------------------|---------------------------------|
------------------------|--5p-4-5p-4-5p-4-----------------|
--2----5----5h--7--7----|-----------------5--5h--7--7S----|
------------------------|---------------------------------|


  Q    Q    E   E  Q       S  S S  S S  S E  E   E  Q      
------------------------|---------------------------------|
------------------------|---------------------------------|
------------------------|---------------------------------|
------------------------|--5p-4-5p-4-5p-4-----------------|
--2----5----5h--7--7----|-----------------5--5h--7--7S----|
------------------------|---------------------------------|


    E  Q    E   E  Q    E     E  E  E.  S E  E  E  E     
|--------------------------|---------------------------||
|--------------------------|---------------------------||
|*-------------------------|--------------------------*||
|*-------------------------|--------------------------*||
|-----------5~--L----------|---------------------------||
|---7--7-----------7----6--|--5--5--5---0-4--5--5--6---||


  E  Q    E   E  Q    E     E  E  E  E  H         
-------------------------|-----------------------|
-------------------------|-----------------------|
-------------------------|-----------------------|
-------------------------|-----------------------|
----------5~--L----------|-----------------------|
--7--7-----------7----6--|--5--5--5--------------|






Comentarios del colaborador: hola saque la cancion de guitar pro 4

Calificar esta versión:
Aviso: Este fichero es trabajo propio de su transcriptor y representa su interpretación personal de la canción. El material contenido en esta página es para exclusivo uso privado, por lo que se prohibe su reproducción o retransmisión, así como su uso para fines comerciales.
Más versiones de Iron Man, Black Sabbath
Iron Man
acordes
Iron Man
tablatura
Iron Man (ver 2)
tablatura
Iron Man (ver 3)
tablatura
Iron Man (ver 4)
tablatura
Iron Man (ver 5)
tablatura
Iron Man (ver 6)
tablatura
Iron Man (ver 7)
tablatura
Iron Man
bajo
Iron Man (ver 2)
bajo
Descubre más canciones de Black Sabbath