Iron Man, Black Sabbath (bajo) (ver 2)

Autor: ccarniello | 51172 visualizaciones



Iron Man-Black Sabbath 
                                                       
LA GUITARRA HACE LA INTRO.EL BAJO COMIENZA JUNTO CON LA BATERIA. 


G----------------------------------|
D-------------5-4-5-4-5-4----------|
A----5--5-7-7-------------5-5-7-7-|
E-7--------------------------------|


G--------------------------------|    |--------------------|
D------------------7-7-5-7-5-----|    |--------------------|
A-----5----------------------7-7-|    |-----5--------------|
E-7-7--7-6-5-5-5--0--------------| x2 |-7-7----7-6-5-5-5---| 

G----------------------------------|
D-------------5-4-5-4-5-4----------|
A----5--5-7-7-------------5-5-7-7-|
E-7--------------------------------|


G------9-7-----------------|------------------------|
D----9----9-7-5-----4-5-4--|------------------7-8-9-|
A-7------------5---------5-|--------5-7-7-8-9-------|
E-----------------7--------|-7--7-7-----------------| x2

SOLO INTRO
G----------------------|
D-11-9-----------------|
A-----11-10-9-7--------|
E--------------7-9-7-9-| x2
SOLO
G-----------------------------------------------------------18----------|
D-----------------------------------------------------------------------|
A--------------------------------------14----16-16-16-16-16----14-15-16-|
E-9-9-9-9978-9-9-9-9978-9-9-9-0--14-16----16----------------------------|

G--------------------------------------------------------------------|
D-16-14------------------------------------------------------------9-|
A------16-14---------------------------------------------7---7--11---|
E------------16-14-12--14-12-9-7-9-0--9-9-9-9-9-9-7-8--9---9---------|

G--------------------------------------------------------------------|
D-11-11-11-11-11-9-10-11-9-10-11-9-10-11-9-10-11-9-------------------|
A--------------------------------------------------11-9-7-9-7-------|
E--------------------------------------------------------------9-7-8-|

G--------------------------------------------------------------------------|
D-----------------------------------------------11-11-11-11-11-11-11-11-11-|
A---------------------------------------------11---------------------------|
E-9-9-9-9-9-9-7-8-9-9-9-9-9-9-9-9-9-9-9-9-9-9------------------------------|

G--------------------------|
D-11-11-11-11-11-11-11-11--|
A--------------------------|
E--------------------------|

SOLO OUTRO
G-----------------------|    |---------------------------|
D-11-9------------------|    |---------------------7-8-9-|
A-----11-10-9-7---------|    |--------5-7-7--8-9-9-------|
E---------------7-9-7-9-| x2 |-7--7-7--------------------| x4
G----------------------------------|
D-------------5-4-5-4-5-4----------|
A----5--5-7-7-------------5-5-7-7-|
E-7--------------------------------|

G---------------------------------|    -----------------|
D-------------------7-7-5-7-5-----|    -----------------|
A-----5----------------------7-7--|    -----5-----------|
E-7-7---7-6-5-5-5--0--------------| x2 -7-7---7-6-5-5-5-|


G-----------------------------------------------|
D-----------------------------------------------|
A-7-7-7-7-7-7-7-7-7-7-7-7-7-7-7-7-7-7-7-7-7-7-7-|
E-----------------------------------------------|

G----------------------------------------------------------|-------------|
D----------------------------------------------------------|-------------|
A-7-5-777777777-5-4-555555555-4-3-4444444444-3-2-333333333-|-3-2-------2-|
E----------------------------------------------------------|-----3-2-3---|
                                                            






Calificar esta versión:
Aviso: Este fichero es trabajo propio de su transcriptor y representa su interpretación personal de la canción. El material contenido en esta página es para exclusivo uso privado, por lo que se prohibe su reproducción o retransmisión, así como su uso para fines comerciales.
Más versiones de Iron Man, Black Sabbath
Iron Man
acordes
Iron Man
tablatura
Iron Man (ver 2)
tablatura
Iron Man (ver 3)
tablatura
Iron Man (ver 4)
tablatura
Iron Man (ver 5)
tablatura
Iron Man (ver 6)
tablatura
Iron Man (ver 7)
tablatura
Iron Man
bajo
Iron Man (ver 2)
bajo
Descubre más canciones de Black Sabbath