Nada Es Normal, Victor Y Leo (tablatura) (ver 6)

Autor: charlyluna | 24246 visualizaciones

Nada es normal  de ?Victor y leo? 
Capo o transporte en el segundo traste
Dedicada para una niña muy especial

Intro:
                       Am                              D 
1|-------------------|-----------------0------------------2--------
2|0h1p0--------------|--------1---------------1---------3---3------
3|------0----0h2-----|------2------2--------2---------2-------2----
4|-------0h2---------|----2------2--------2------2--0--------------
5|-------------------|-0---------------0---------------------------
6|-------------------|---------------------------------------------
                      G
1|-------------------|---------------------------------------------
2|0h1p0--------------|-------0-----------0------------0------------
3|------0------0-----|-----0-----0-----0-----0------0----0---------
4|-------0h2---------|---0-----0-----0-----0------0----0-----------
5|-------------------|-------------2-------------------------------
6|-------------------|-3------------------------3------------------

                       Am                              D 
1|-------------------|-----------------0------------------2--------
2|0h1p0--------------|--------1---------------1---------3---3------
3|------0----0h2-----|------2------2--------2---------2-------2----
4|-------0h2---------|----2------2--------2------2--0--------------
5|-------------------|-0---------------0---------------------------
6|-------------------|---------------------------------------------

                      G             Gsus           G          
1|-------------------|---------------------------------------------
2|0h1p0--------------|-------0-------1-----1-------0---------------
3|------0------0-----|-----0-----0-------0-----0-------------------
4|-------0h2---------|---0-----0-------0-----0---------------------
5|-------------------|---------------------------------------------
6|-------------------|-3-------------3-------------3---------------


1ra parte de la canción

La luz vas a apagar  y el cielo a encender??      todo esta tranquilo?
    G                       C                 Cmaj7    Am                                             
1|--------------3-----------------------------------------------------0---------
2|-------0------------0------------1--------------------------1-----------1-----
3|------0----0-------0-----0-----0-----0------0------0------2------2-----2?---2-
4|-----0----0-------0----0-----2-----2------2------0------2------2-----2----2---
5|---------------------------3------------3------2------0-------------0---------
6|--3-----------3---------------------------------------------------------------

                  Te voy a conocer,             me voy a apasionar? 
D9/6                              G                      Am          
1|-----------------0----------------------------3----------------------0
2|--------3---------------3--------------0----------0-----------1-------
3|------2-----2---------2-----2--------0----0------0---0------2-----2---
4|----0-----0---------0-----0--------0-----0------0---0-----2-----2-----
5|-------------------------------------------------------0-------------0
6|--2--------------2---------------3------------3-----------------------

                       No hay mucho mas que decir       iieeee
     Am         D9/6                    G                        C
1|--------------------------0-------------------------3-------------------0------
2|------1-------------3-----------3-------------0-----------0--------1-----------
3|-----2----2-------2----2------2-----2-------0----0-------0---0----0---0------0-
4|---2----2-------0-----0-----0-----0-------0-----0------0----0---2----2-----2---
5|---------------------------------------------------------------3--------3------
6|--------------2-----------2------------3------------3--------------------------

Y iieeee

  Cmaj7   Am                      D9/6                        G  
1|---------------------0---------------------------------------------------------
2|--------------1------------1-------------3-----------3-------------------------
3|----0-------2----2-------2?----2-------2-----2-----2-----2---------------------
4|---0------2-----2------2-----2------0------0-----0-----0-----------------------
5|-2------0------------0-------------------------0-------------------------------
6|---------------------------------2---------------------------3-----------------

CORO
                  C                                    D
Estamos frente a frente          Nuestros labios no resisten           

   C                           D                
1|---------------0---------------------------2-----------------------------------
2|--------1-------------1-------------3-------------3----------------------------
3|------0-----0-------0-----0-------2-----2-------2-----2------------------------
4|----2-----2-------2-----2-------0-----0-------0-----0--------------------------
5|--3------------3--------------0------------0-----------------------------------
6|-------------------------------------------------------------------------------


               G                      C                                 A5
Nuestros ojos son testigos, el amor existe,                Todo es tan real,

    G                   C                C maj7 A5
1|----------3----------------------0--------------------------0-----------------
2|-----0---------0------------1-----------------------0--------------0----------
3|----0---0-----0---0-------0----0-----0-----0------2------2-------2------2-----
4|---0---0-----0---0------2----2------2----0------2------2-------2------2-------
5|----------------------3----------3-----2------0-------------0-----------------
6|-3--------3-------------------------------------------------------------------

  D                       G      G7
             pero nada es normal

  D                        G                       G7
1|------------2------------------------3-----------1----------1-----------------
2|------3-----------3------------0----------0-----------0---------0-------------
3|----2-----2-----2-----2-------0---0------0---0-------0---0-----0---0----------
4|---0----0-----0-----0-------0----0-----0----0-------0---0-----0---0-----------
5|-0----------0-----------------------------------------------------------------
6|--------------------------3----------3-----------3----------3-----------------





              C                          D                               G
Jamás había vivido un sentimiento tan profundo       Quedarme aquí a tu lado

   C                           D                
1|---------------0---------------------------2-----------------------------------
2|--------1-------------1-------------3-------------3----------------------------
3|------0-----0-------0-----0-------2-----2-------2-----2------------------------
4|----2-----2-------2-----2-------0-----0-------0-----0--------------------------
5|--3------------3--------------0------------0-----------------------------------
6|-------------------------------------------------------------------------------

                         C          Cmaj7       Am  
es lo más lindo de este mundo   Todo es tan real,   

    G                   C                C maj7 Am
1|----------3----------------------0--------------------------0-----------------
2|-----0---------0------------1-----------------------1--------------1----------
3|----0---0-----0---0-------0----0-----0-----0------2------2-------2------2-----
4|---0---0-----0---0------2----2------2----0------2------2-------2------2-------
5|----------------------3----------3-----2------0-------------0-----------------
6|-3--------3-------------------------------------------------------------------

D9/6         G
pero nada es normal
 

  D9/6                      G                 
1|---------------------------3--
2|-------3-----------3----------
3|-----2-----2-----2-----2------
4|---0-----0-----0-----0--------
5|------------------------------
6|-2----------2--------------3--


2DA PARTE

Repetimos el intro
Intro:
                       Am                              D 
1|-------------------|-----------------0------------------2--------
2|0h1p0--------------|--------1---------------1---------3---3------
3|------0----0h2-----|------2------2--------2---------2-------2----
4|-------0h2---------|----2------2--------2------2--0--------------
5|-------------------|-0---------------0---------------------------
6|-------------------|---------------------------------------------
                      G
1|-------------------|---------------------------------------------
2|0h1p0--------------|-------0-----------0------------0------------
3|------0------0-----|-----0-----0-----0-----0------0----0---------
4|-------0h2---------|---0-----0-----0-----0------0----0-----------
5|-------------------|---------------------------------------------
6|-------------------|-3------------3------------3------------------

                       Am                              D 
1|-------------------|-----------------0------------------2--------
2|0h1p0--------------|--------1---------------1---------3---3------
3|------0----0h2-----|------2------2--------2---------2-------2----
4|-------0h2---------|----2------2--------2------2--0--------------
5|-------------------|-0---------------0---------------------------
6|-------------------|---------------------------------------------

                      G             Gsus           G          
1|-------------------|---------------------------------------------
2|0h1p0--------------|-------0-------1-----1-------0---------------
3|------0------0-----|-----0-----0-------0-----0-------------------
4|-------0h2---------|---0-----0-------0-----0---------------------
5|-------------------|---------------------------------------------
6|-------------------|-3-------------3-------------3---------------


            G                   Am   D9/6
Te voy a conocer, me voy a apasionar
   G                        Am          
1|-----------------3----------------------0
2|----------0----------0-----------1-------
3|--------0----0------0---0------2-----2---
4|------0-----0------0---0-----2-----2-----
5|--------------------------0-------------0
6|-3---------------3-----------------------

                       No hay mucho mas que decir       iieeee
     Am         D9/6                    G                        C
1|--------------------------0-------------------------3-------------------0------
2|------1-------------3-----------3-------------0-----------0--------1-----------
3|-----2----2-------2----2------2-----2-------0----0-------0---0----0---0------0-
4|---2----2-------0-----0-----0-----0-------0-----0------0----0---2----2-----2---
5|---------------------------------------------------------------3--------3------
6|--------------2-----------2------------3------------3--------------------------

Y iieeee

  Cmaj7   Am                      D9/6                        G  
1|---------------------0---------------------------------------3-----------------
2|--------------1------------1-------------3-----------3-------0-----------------
3|----0-------2----2-------2?----2-------2-----2-----2-----2---0-----------------
4|---0------2-----2------2-----2------0------0-----0-----0-----0-----------------
5|-2------0------------0-------------------------0-------------2-----------------
6|---------------------------------2---------------------------3-----------------

CORO
                  C                                    D
Estamos frente a frente          Nuestros labios no resisten           

   C                           D                
1|---------------0---------------------------2-----------------------------------
2|--------1-------------1-------------3-------------3----------------------------
3|------0-----0-------0-----0-------2-----2-------2-----2------------------------
4|----2-----2-------2-----2-------0-----0-------0-----0--------------------------
5|--3------------3--------------0------------0-----------------------------------
6|-------------------------------------------------------------------------------


               G                      C                                 A5
Nuestros ojos son testigos, el amor existe,                Todo es tan real,

    G                   C                C maj7 A5
1|----------3----------------------0--------------------------0-----------------
2|-----0---------0------------1-----------------------0--------------0----------
3|----0---0-----0---0-------0----0-----0-----0------2------2-------2------2-----
4|---0---0-----0---0------2----2------2----0------2------2-------2------2-------
5|----------------------3----------3-----2------0-------------0-----------------
6|-3--------3-------------------------------------------------------------------

  D                       G      G7
             pero nada es normal

  D                        G                       G7
1|------------2------------------------3-----------1----------1-----------------
2|------3-----------3------------0----------0-----------0---------0-------------
3|----2-----2-----2-----2-------0---0------0---0-------0---0-----0---0----------
4|---0----0-----0-----0-------0----0-----0----0-------0---0-----0---0-----------
5|-0----------0-----------------------------------------------------------------
6|--------------------------3----------3-----------3----------3-----------------





              C                          D                               G
Jamás había vivido un sentimiento tan profundo       Quedarme aquí a tu lado

   C                           D                
1|---------------0---------------------------2-----------------------------------
2|--------1-------------1-------------3-------------3----------------------------
3|------0-----0-------0-----0-------2-----2-------2-----2------------------------
4|----2-----2-------2-----2-------0-----0-------0-----0--------------------------
5|--3------------3--------------0------------0-----------------------------------
6|-------------------------------------------------------------------------------

                         C          Cmaj7       Am  
es lo más lindo de este mundo   Todo es tan real,   

    G                   C                C maj7 Am
1|----------3----------------------0--------------------------0-----------------
2|-----0---------0------------1-----------------------1--------------1----------
3|----0---0-----0---0-------0----0-----0-----0------2------2-------2------2-----
4|---0---0-----0---0------2----2------2----0------2------2-------2------2-------
5|----------------------3----------3-----2------0-------------0-----------------
6|-3--------3-------------------------------------------------------------------

FINAL:
D9/6                               Cmaj                         Em7            
               pero nada es normaaaaaaaaal                             ieeeeee                 
 
  D9/6                     Cmaj                     Em7          
1|--------------------------------------3------------------------3-------------
2|-------3-----------3------------1-----------1-----------3------------3-------
3|-----2-----2-----2-----2------0----0------0----0------0-----0------0-----0---
4|---0-----0-----0-----0------2----2------2-----2-----0-----0------0-----0-----
5|-------------0------------3-----------3-----------2------------2-------------
6|-2---------------------------------------------------------------------------

   Am7 
    Am7                   G      (tocar parte del intro con unos nuevos punteos)                   
1|------------3-------------|---------------------------
2|-------1----------1-------|-0h1p0---------------------
3|-----0----0-----0----0----|-------0-----0-------------
4|----2---2-----2----2------|---------0h2--------0------
5|--0---------0-------------|----------------0h2---2----
6|------------------------3-|---------------------------

  Cmaj                     Em7                       Em7-5   
1|-------------3------------------------3------------------------3---------------
2|-------1-----------1-----------3------------3------------3-----------3---------
3|-----0----0------0----0------0-----0------0-----0------0-----0-----0-----0-----
4|---2----2------2-----2-----0-----0------0-----0------0-----0-----0-----0-------
5|-3-----------3-----------2------------2------------1-----------1---------------
6|-------------------------------------------------------------------------------

  Em7                          G
1|--------------3---------------3-
2|-------3------------3---------0-
3|-----0-----0------0---0-------0-
4|---0-----0------0------0------0-
5|-2------------2---------------2-
6|------------------------------3-

Esta canción es muy hermosa y se la dedico a una chava que cambio mi vida, y espero que les guste y les sirva de algo, si no conocen los acordes aquí están la posición de los acordes de la cancion:
   |   Am   |    D      |    G     |     C     |Cmaj7| Gsus  |  D9/6| A5    |   G7  | Cmaj|  Em7 | Am7| Em7-5                 
1|--0---|--2---|--3---|--0--|--0---|--3--|--0--|-----|--1-|--3--|--3--|-3--|-3--|
2|--1---|--3---|--0---|--1--|--1---|--1--|--3--|--0--|--0-|--1--|--3--|-1--|-3--|
3|--2---|--2---|--0---|--0--|--0---|--0--|--2--|--2--|--0-|--0--|--0--|-0--|-0--|
4|--2---|--0---|--0---|--2--|--0---|--0--|--0--|--2--|--0-|--2--|--0--|-2--|-0--|
5|--0---|------|--2---|--3--|--2---|--0--|--0--|--0--|--2-|--3--|--2--|-0--|-1--|
6|------|------|--3---|-----|------|--3--|--2--|-----|--3-|-----|-----|----|----|
Calificar esta versión:
Aviso: Este fichero es trabajo propio de su transcriptor y representa su interpretación personal de la canción. El material contenido en esta página es para exclusivo uso privado, por lo que se prohibe su reproducción o retransmisión, así como su uso para fines comerciales.
Más versiones de Nada Es Normal, Victor Y Leo
Nada Es Normal
acordes
Nada Es Normal (ver 2)
acordes
Nada Es Normal (ver 3)
acordes
Nada Es Normal (ver 4)
acordes
Nada Es Normal
tablatura
Nada Es Normal (ver 2)
tablatura
Nada Es Normal (ver 3)
tablatura
Nada Es Normal (ver 4)
tablatura
Nada Es Normal (ver 5)
tablatura
Nada Es Normal (ver 6)
tablatura
Descubre más canciones de Victor Y Leo