Nada Es Normal, Victor Y Leo (tablatura) (ver 2)

Autor: fernando.fetis | 26140 visualizaciones

Esta es la tablatura de la cancion nada es normal de victor y leo, si se toca lento no suena bien, 
se nesesita un poco de rapidez, asegurado que funciona:

Introduccion:

                    La menor           Re mayor

 |----------------|----------0-------|-------2--|
 |-0h1p0----------|-------1------1---|-----3----|
 |-------0-----0--|-----2--2---2---2-|---2------|
 |---------0h2----|---2------2-------|-0--------|
 |----------------|-0----------------|----------|
 |----------------|------------------|----------|

                            Sol mayor           

 |----------------|-----------------------------|
 |-0h1p0----------|-------0---------0---------0-|
 |-------0-----0--|-----0-----0---0-----0---0---|
 |---------0h2----|---0-----0---0-----0---0-----|
 |----------------|-----------------------------|
 |----------------|-3---------------------------|

                    La menor           Re mayor

 |----------------|----------0-------|-------2--|
 |-0h1p0----------|-------1------1---|-----3----|
 |-------0-----0--|-----2--2---2---2-|---2------|
 |---------0h2----|---2------2-------|-0--------|
 |----------------|-0----------------|----------|
 |----------------|------------------|----------|

                    Sol mayor          Sol mayor 

 |----------------|----------|--------|----3----|
 |-0h1p0----------|-------0--|-1---1--|----0----|
 |-------0-----0--|-----0--0-|---0--0-|----0----|
 |---------0h2----|---0------|--------|----0----|
 |----------------|----------|--------|----2----|
 |----------------|-3--------|--------|----3----|

La letra "h" significa hammer on, y la "p" es pull off.
el hammer on o martillo, es cargar una cuerda en un espacio determinado luego de haber pulsado la cuerda, por ejemplo en el incio de la introduccion:

0h1

esosignifica que hay que pulsar la cuerda al aire (por que tiene un 0) y luego cargar la misma cuerda en el primer espacio.

el pull off es lo inverso al hammer on, es pulsar en un espacio determinado una cuerda y luego sacar el dedo del espacio, por ejempo:

1p0

eso significa que hay que tocar la cuerda en el priemr espacio y luego sacar el dedo.

cuando aparece un nuemro sobre otro, significa que hay que tocar las cuerdas al mismo tiempo.

Para mas informacion enviame un correo a:

fernando.fetis@hotmail.com
Calificar esta versión:
Aviso: Este fichero es trabajo propio de su transcriptor y representa su interpretación personal de la canción. El material contenido en esta página es para exclusivo uso privado, por lo que se prohibe su reproducción o retransmisión, así como su uso para fines comerciales.
Más versiones de Nada Es Normal, Victor Y Leo
Nada Es Normal
acordes
Nada Es Normal (ver 2)
acordes
Nada Es Normal (ver 3)
acordes
Nada Es Normal (ver 4)
acordes
Nada Es Normal
tablatura
Nada Es Normal (ver 2)
tablatura
Nada Es Normal (ver 3)
tablatura
Nada Es Normal (ver 4)
tablatura
Nada Es Normal (ver 5)
tablatura
Nada Es Normal (ver 6)
tablatura
Descubre más canciones de Victor Y Leo