Nada Es Normal, Victor Y Leo (acordes) (ver 4)

Autor: anthony25 | 41318 visualizaciones

ambmcdemgg7
Esta canción lleva el capotraste en el 2do traste

del diapasón de su guitarra

                      Am                      D                           G             [esto es un adorno que queda genial!]
F#|-------------------------------0-----------------1---0-----------------3------3------3/5------5------3-------3--
C#|--0h1h0-----------1------1-----------1---------3--------0h1h0------------------------3/5----5-----5--3-----3----
A |--------0----0---------2-----2-----2-----2---2----------------0-----0-------0-----0-------0-----0--------0------  X2
E |----------0h1--------2-----2-----2-----2---0-------0------------0h1-------0-----0----------------------0--------
B |------------------0---------------------------------------------------------------------------------------------
F#|-----------------------------------------------------------------------3----------------------------------------


                 G                     C   
La luz vas a apagar y el cielo a encender 
Am                        D
todo esta tranquilo por aqui 
              G                   C   Am
te voy a conocer, te voy a apasionar 
                   G        C       D    
no hay mucho mas que decir eiiieee iiiiii


                    C   
Estamos frente a frente 
                      D       
nuestros labios no resisten  
               Bm                     Em       
nuestros ojos son testigos, el amor existe 
             C     D                              
todo es tan real
                 G                          
pero nada es normal 

G7
                 C                        D        
Jamas habia vivido un sentimiento tan profundo 
                    Bm                          Em        
quedarme aqui a tu lado es lo mas lindo de este mundo 
             C     D                        
todo es tan real 
                 G      
pero nada es normal 



                      Am                      D                           G             
F#|-------------------------------0-----------------1---0-----------------3------3------3/5------5------3-------3--
C#|--0h1h0-----------1------1-----------1---------3--------0h1h0------------------------3/5----5-----5--3-----3----
A |--------0----0---------2-----2-----2-----2---2----------------0-----0-------0-----0-------0-----0--------0------  X2
E |----------0h1--------2-----2-----2-----2---0-------0------------0h1-------0-----0----------------------0--------
B |------------------0---------------------------------------------------------------------------------------------
F#|-----------------------------------------------------------------------3----------------------------------------


              G                   C   Am
te voy a conocer, te voy a apasionar 
                   G        C       D    
no hay mucho mas que decir eiiieee iiiiii


                    C   
Estamos frente a frente 
                      D       
nuestros labios no resisten  
               Bm                     Em       
nuestros ojos son testigos, el amor existe 
             C     D                              
todo es tan real
                 G                          
pero nada es normal 

G7
                 C                        D        
Jamas habia vivido un sentimiento tan profundo 
                    Bm                          Em        
quedarme aqui a tu lado es lo mas lindo de este mundo 
             C     D                        
todo es tan real 
                 G      
pero nada es normal
Calificar esta versión:
Aviso: Este fichero es trabajo propio de su transcriptor y representa su interpretación personal de la canción. El material contenido en esta página es para exclusivo uso privado, por lo que se prohibe su reproducción o retransmisión, así como su uso para fines comerciales.
Más versiones de Nada Es Normal, Victor Y Leo
Nada Es Normal
acordes
Nada Es Normal (ver 2)
acordes
Nada Es Normal (ver 3)
acordes
Nada Es Normal (ver 4)
acordes
Nada Es Normal
tablatura
Nada Es Normal (ver 2)
tablatura
Nada Es Normal (ver 3)
tablatura
Nada Es Normal (ver 4)
tablatura
Nada Es Normal (ver 5)
tablatura
Nada Es Normal (ver 6)
tablatura
Descubre más canciones de Victor Y Leo