Nada Es Normal, Victor Y Leo (tablatura) (ver 4)

Autor: kokywask | 39285 visualizaciones

Intro

es para tocarlo solo con punteo y todo sin traste:

1 ---------------------------|
2 -2h3h2---------------------|
3 -------2-----2-------------|
4 ---------2h4---------------|
5 ---------------------------|
6 ---------------------------|

Seguido viene un arpegio simple en Bm, luego E, despues repetimos el requinto:

1 ---------------------------|
2 -2h3h2---------------------|
3 -------2-----2-------------|
4 ---------2h4---------------|
5 ---------------------------|
6 ---------------------------|


Y continua con A se repite continuamente hasta que empieza a cantar....

Comentarios del colaborador: Bueno espero que les guste por que en algunas versiones estaba mal....jeje graxxx.. BY wask y OTto...

Calificar esta versión:
Aviso: Este fichero es trabajo propio de su transcriptor y representa su interpretación personal de la canción. El material contenido en esta página es para exclusivo uso privado, por lo que se prohibe su reproducción o retransmisión, así como su uso para fines comerciales.
Más versiones de Nada Es Normal, Victor Y Leo
Nada Es Normal
acordes
Nada Es Normal (ver 2)
acordes
Nada Es Normal (ver 3)
acordes
Nada Es Normal (ver 4)
acordes
Nada Es Normal
tablatura
Nada Es Normal (ver 2)
tablatura
Nada Es Normal (ver 3)
tablatura
Nada Es Normal (ver 4)
tablatura
Nada Es Normal (ver 5)
tablatura
Nada Es Normal (ver 6)
tablatura
Descubre más canciones de Victor Y Leo