Reptilia, The Strokes (tablatura) (ver 3)

Autor: sigfrido | 46478 visualizaciones



Esta cancion es  muy sencilla espero que les guste!!!!!!
ADEMAS SUENA BIEN EN ACUSTICA


Intro
e|-----------------------------------------------------|
B|-----------------------------------------------------|
G|7-7--7-----7-7--7----------------7------------7------|
D|-------9-7--------9-7--6-6--6--9----6-6--6--9--------|
A|-----------------------------------------------------|
E|-----------------------------------------------------|


  1 RIFF:
e|------------------------------------------------------------B|15-15--15-10-10--10-12-12--12-14-14--14-12-12--12-14-14-----
G|------------------------------------------------------------
D|------------------------------------------------------------
E|------------------------------------------------------------

e|------------------------------------------------------------
B|14-10-10--10-15-15------------------------------------------
G|------------------------------------------------------------
D|------------------------------------------------------------
E|------------------------------------------------------------

Solo:

e|-4-----------------------|-4-------------------|
B|---7-5-7-5---5-----------|---7-5-7-5---5-------|
G|-----------7---7-6-7-6-4-|-----------7---7-6-4-|
D|-------------------------|---------------------|
A|-------------------------|---------------------|
E|-------------------------|---------------------|
          3 vezes

e|4-7-7-4h7h5--7-10-7-4h7h5--9-12^-7-4h7h5--9-12^-7-4h7h5|
B|-------------------------------------------------------|
G|-------------------------------------------------------|
D|-------------------------------------------------------|
A|-------------------------------------------------------|
E|-------------------------------------------------------|


e|--4-----------------------|--4-------------|
B|----7-5-7-5---5-----------|----7-5-7-5-----| 
G|------------7---7-6-7-6-4-|------------7-4-|  
D|--------------------------|----------------| 
A|--------------------------|----------------|
E|--------------------------|----------------| 






Calificar esta versión:
Aviso: Este fichero es trabajo propio de su transcriptor y representa su interpretación personal de la canción. El material contenido en esta página es para exclusivo uso privado, por lo que se prohibe su reproducción o retransmisión, así como su uso para fines comerciales.
Más versiones de Reptilia, The Strokes
Reptilia
acordes
Reptilia
tablatura
Reptilia (ver 2)
tablatura
Reptilia (ver 3)
tablatura
Reptilia (ver 4)
tablatura
Reptilia (ver 5)
tablatura
Reptilia
bajo
Reptilia
bateria
Descubre más canciones de The Strokes