Reptilia, The Strokes (tablatura)

Autor: strecho strokero | 41833 visualizaciones



intro
guitar 1
e|---------------------------------------------------------------------|
b|---------------------------------------------------------------------|
g|--7------9-----------------------------------------------------------|
d|--9-x16--9-x16-------------------------------------------------------|x4
a|--9------7-----------------------------------------------------------|
E|---------------------------------------------------------------------|

guitar 2
e|---------------------------------------------------------------------|
b|---------------------------------------------------------------------|
g|-70-7----------------------------------------------------------------|
d|-xx-x-9-7------------------------------------------------------------|x4
a|-xx-x-x-x-x2--11-11-11-14-17-x2--------------------------------------|
E|-77-7-7-7------------------------------------------------------------|

verse
guitar 2 (no guitar 1)
e|---------------------------------------------------------------------|
b|---------------------------------------------------------------------|
g|---------------------------------------------------------------------|
d|-12-12-12------------------------------------------------------------|x4
a|----------14-12--x2--11-11-11-14-17-x2-------------------------------|
E|---------------------------------------------------------------------|

verse continued
guitar 1
e|---------------------------------------------------------------------|
b|---------------------------------------------------------------------|
g|--7------9-----------------------------------------------------------|
d|--9-x16--9-x16-------------------------------------------------------|x2
a|--9------7-----------------------------------------------------------|
E|---------------------------------------------------------------------|
                             these 2 are in unison
guitar 2
e|---------------------------------------------------------------------|
b|---------------------------------------------------------------------|
g|-70-7----------------------------------------------------------------|
d|-xx-x-9-7------------------------------------------------------------|x2
a|-xx-x-x-x-x2--11-11-11-14-17-x2--------------------------------------|
E|-77-7-7-7------------------------------------------------------------|

interlude
guitar 1
e|---------------------------------------------------------------------|
b|-15-15-1510-10-10/12-12-12/14-14-1412-12-12/14-14-1410-10-10/15-15|
g|--x--x--xx--x---x/-x--x--x/-x--x--x-x--x--x/-x--x--xx--x---x/-x--x|
d|--x--x--xx--x---x/-x--x--x/-x--x--x-x--x--x/-x--x--xx--x---x/-x--x|x6
a|-14-14-149--9---9/10-10-10/12-12-1210-10-10/12-12-129--9---9/14-14|
E|---------------------------------------------------------------------|

guitar 2 after x2 of thing above start this
e|-7----10-9------9-7---7-10-9---12-9-7---7-10-9----12-9-------9-10-7---9|
b|--7-10-----7-10-----8-------10--------8--------10------7-8-7--------7--|
g|-----------------------------------------------------------------------|
d|-----------------------------------------------------------------------|x4
a|-----------------------------------------------------------------------|
E|-----------------------------------------------------------------------|


Solo guitar 1
e|---------------------------------------------------------------------|
b|--9-7---7---------------7-9-7---7------------------------------------|
g|------9---9-7-9-7-6-7-6-------9---9-7-9-7-6-7-6-4--------------------|x4
d|---------------------------------------------------------------------|
a|---------------------------------------------------------------------|
E|---------------------------------------------------------------------|

e|-----7----------------10b-7-------------7--7/12b-10------------------|
b|-10b---10p7h9p7----7--------10p7h9p7-----7-----------13p10h12p10-----|
g|----------------10--7----------------10--------------------------13--|
d|---------------------------------------------------------------------|
a|---------------------------------------------------------------------|
E|---------------------------------------------------------------------|

e|-10---12b------------------------------------------------------------|
b|---10-----13p10h12-----9-7---7---------------7-9-7---7---------------|
g|-------------------13b-----9---9-7-9-7-6-7-6-------9--9-7-4~~~-------|
d|---------------------------------------------------------------------|
a|---------------------------------------------------------------------|
E|---------------------------------------------------------------------|

e|---------------------------------------------------------------------|
b|--------------------------------------------------999999b9b9b--------|
g|--------------------9---9---9---9-----------------999999b9b9b--------|
d|----9---9---9---9---9---9---9---9---9---9---9---9-999999b9b9b--------|
a|----9---9---9---97777777777777777---9---9---9---9--------------------|
E|-7777777777777777----------------7777777777777777--------------------|
 pm--- --- --- --- --- --- --- --- --- --- --- ---

intro
guitar 1
e|---------------------------------------------------------------------|
b|---------------------------------------------------------------------|
g|--7------9-----------------------------------------------------------|
d|--9-x16--9-x16-------------------------------------------------------|x4
a|--9------7-----------------------------------------------------------|
E|---------------------------------------------------------------------|
                            these 2 are in unison
guitar 2
e|---------------------------------------------------------------------|
b|---------------------------------------------------------------------|
g|-70-7----------------------------------------------------------------|
d|-xx-x-9-7------------------------------------------------------------|x4
a|-xx-x-x-x-x2--11-11-11-14-17-x2--------------------------------------|
E|-77-7-7-7------------------------------------------------------------|

interlude
guitar 1
e|---------------------------------------------------------------------|
b|-15-15-1510-10-10/12-12-12/14-14-1412-12-12/14-14-1410-10-10/15-15|
g|--x--x--xx--x---x/-x--x--x/-x--x--x-x--x--x/-x--x--xx--x---x/-x--x|
d|--x--x--xx--x---x/-x--x--x/-x--x--x-x--x--x/-x--x--xx--x---x/-x--x|x6
a|-14-14-149--9---9/10-10-10/12-12-1210-10-10/12-12-129--9---9/14-14|
E|---------------------------------------------------------------------|






guitar 2 after x2 of thing above start this
e|-7----10-9------9-7---7-10-9---12-9-7---7-10-9----12-9-------9-10-7---9|
b|--7-10-----7-10-----8-------10--------8--------10------7-8-7--------7--|
g|-----------------------------------------------------------------------|
d|-----------------------------------------------------------------------|x4
a|-----------------------------------------------------------------------|
E|-----------------------------------------------------------------------|
on last time bend the e|-9-| 

end notes
guitar 1               guitar2
e|-----------|-----------7-----------|     thats it guys, hope you like it
b|-----------|-----------7-----------|        peace
g|--7--------|-----------7-----------|
d|--9--------|-----------------------|
a|--9--------|-----------------------|
                  E|-----------------|------------------------------------|





Comentarios del colaborador: ps namas aqui le dejo la megor rola d los strokes la neta sta facil

Calificar esta versión:
Aviso: Este fichero es trabajo propio de su transcriptor y representa su interpretación personal de la canción. El material contenido en esta página es para exclusivo uso privado, por lo que se prohibe su reproducción o retransmisión, así como su uso para fines comerciales.
Más versiones de Reptilia, The Strokes
Reptilia
acordes
Reptilia
tablatura
Reptilia (ver 2)
tablatura
Reptilia (ver 3)
tablatura
Reptilia (ver 4)
tablatura
Reptilia (ver 5)
tablatura
Reptilia
bajo
Reptilia
bateria
Descubre más canciones de The Strokes