Reptilia, The Strokes (tablatura) (ver 2)

Autor: fernandoramirez_901 | 19304 visualizaciones



THE STROKES – REPTILIA

INTRO:

Guitar 1 (Nick Valensi)

|-----------------------------------------------------------------|
|-----------------------------------------------------------------|
|-7-7-7-7-7-7-7-7-7-7-7-7-7-7-7-7-9-9-9-9-9-9-9-9-9-9-9-9-9-9-9-9-|
|-9-9-9-9-9-9-9-9-9-9-9-9-9-9-9-9-9-9-9-9-9-9-9-9-9-9-9-9-9-9-9-9-|
|-9-9-9-9-9-9-9-9-9-9-9-9-9-9-9-9-7-7-7-7-7-7-7-7-7-7-7-7-7-7-7-7-|
|-----------------------------------------------------------------|x4

Guitar 2 (Albert Hammond Jr., play this together Nick)

E|---------------------------------------------------------------|
B|---------------------------------------------------------------|
G|-7-7--7------7-7--7--------------------------------------------|
D|---------9-7----------9-7--------------------------------------|
A|-----------------------------11-11--11-14-17---11-11--11-14-17-|
E|-0-0--0--0-0-0-0--0---0-0-----0--0---0--0--0----0--0---0--0--0-|x4

VERSE 1:

Guitar 2 (alone, while Julian sings: “He seemed impressed…”)

E|---------------------------------------------------------------|
B|---------------------------------------------------------------|
G|-7-7--7------7-7--7--------------------------------------------|
D|---------9-7----------9-7--------------------------------------|
A|-----------------------------11-11--11-14-17---11-11--11-14-17-|
E|---------------------------------------------------------------|x4

PRE-CHORUS:

Guitar 1 (Nick - “I said: ‘Please, don’t slow me down…’”)

|-----------------------------------------------------------------|
|-----------------------------------------------------------------|
|-7-7-7-7-7-7-7-7-7-7-7-7-7-7-7-7-9-9-9-9-9-9-9-9-9-9-9-9-9-9-9-9-|
|-9-9-9-9-9-9-9-9-9-9-9-9-9-9-9-9-9-9-9-9-9-9-9-9-9-9-9-9-9-9-9-9-|
|-9-9-9-9-9-9-9-9-9-9-9-9-9-9-9-9-7-7-7-7-7-7-7-7-7-7-7-7-7-7-7-7-|
|-----------------------------------------------------------------|x2

Guitar 2 (Albert)

E|---------------------------------------------------------------|
B|---------------------------------------------------------------|
G|-7-7--7------7-7--7--------------------------------------------|
D|---------9-7----------9-7--------------------------------------|
A|-----------------------------11-11--11-14-17---11-11--11-14-17-|
E|-0-0--0--0-0-0-0--0---0-0-----0--0---0--0--0----0--0---0--0--0-|x2



INTERLUDE:

Guitar 1 (Nick, alone)

e|-----------------------------------------------------------------------------|
B|-15-15-15/10-10--10/12-12--12/14--14/12-12--12/14-14--14/10-10--10/15-15--15-|
G|-X--X---X/X---X---X/X--X----X/X----X/X--X----X/X--X----X/X--X----X/X--X---X--|
D|-X--X---X/X---X---X/X--X----X/X----X/X--X----X/X--X----X/X--X----X/X--X---X--|
A|-14-14-14/9--9---9/10-10--10/12---12/10-10--10/12-12--12/9--9----9/14-14--14-|
E|-----------------------------------------------------------------------------|X2


CHORUS:

Guitar 1 (Nick - “Yeah, the night is not over…”)

e|-----------------------------------------------------------------------------|
B|-15-15-15/10-10--10/12-12--12/14--14/12-12--12/14-14--14/10-10--10/15-15--15-|
G|-X--X---X/X---X---X/X--X----X/X----X/X--X----X/X--X----X/X--X----X/X--X---X--|
D|-X--X---X/X---X---X/X--X----X/X----X/X--X----X/X--X----X/X--X----X/X--X---X--|
A|-14-14-14/9--9---9/10-10--10/12---12/10-10--10/12-12--12/9--9----9/14-14--14-|
E|-----------------------------------------------------------------------------|X4

Guitar 2 (Albert)

E|-7------10-9-------9-7---7--10-9----12-9-7---7--10-9----12-9-------9-10-7---9-|
B|---7-10------7-10------8---------10--------8---------10------7-8-7--------7---| 
G|------------------------------------------------------------------------------|  
D|------------------------------------------------------------------------------|  
A|------------------------------------------------------------------------------| 
E|------------------------------------------------------------------------------|x4

SOLO (Nick):

e|--------------------------------------------------------------------------|
B|-9-7--7---------------7--9-7--7-------------------9-7--7----------------7-|
G|----9---9-7-9-7-6-7-6--------9---9-7-9-7-6-7-6--------9---9-7-9-7-6-7-6---|
D|-----------------------------------------------9--------------------------|
A|--------------------------------------------------------------------------|
E|--------------------------------------------------------------------------|


|---------------------|
|-9-7--7--------------|
|-----9---9-7---------|
|-------------9-------|
|---------------------|
|---------------------|


|-------------------------------10-9-----------------|
|--12--12--10p9-----------------------10p9-----------|
|---------------11p9-11--7-----------------11p9-11--7|
|----------------------------------------------------|
|----------------------------------------------------|
|----------------------------------------------------|

|-12b13r12---10p9---------------12b13r12---10p9----------|
|-----------------12p10--12-9---------------------12--10-|
|--------------------------------------------------------|
|--------------------------------------------------------|
|--------------------------------------------------------|
|--------------------------------------------------------|


|-----------------------------------------|
|-9-7--7---------------7--9-7--7----------|
|----9---9-7-9-7-6-7-6--------9---9-7-----|
|--------------------------------------9--|
|-----------------------------------------|
|-----------------------------------------|

VERSE 2:

Guitar 1 (Nick - “Now every time that I look at myself…”)

|-----------------------------------------------------------------|
|-----------------------------------------------------------------|
|-7-7-7-7-7-7-7-7-7-7-7-7-7-7-7-7-9-9-9-9-9-9-9-9-9-9-9-9-9-9-9-9-|
|-9-9-9-9-9-9-9-9-9-9-9-9-9-9-9-9-9-9-9-9-9-9-9-9-9-9-9-9-9-9-9-9-|
|-9-9-9-9-9-9-9-9-9-9-9-9-9-9-9-9-7-7-7-7-7-7-7-7-7-7-7-7-7-7-7-7-| x2
|-----------------------------------------------------------------|
PM ---------------------------------------------------------------

VERSE 3:

Guitar 1 (Nick Valensi - “Room is on fire and she’s fixing her hair…”)

|-----------------------------------------------------------------|
|-----------------------------------------------------------------|
|-7-7-7-7-7-7-7-7-7-7-7-7-7-7-7-7-9-9-9-9-9-9-9-9-9-9-9-9-9-9-9-9-|
|-9-9-9-9-9-9-9-9-9-9-9-9-9-9-9-9-9-9-9-9-9-9-9-9-9-9-9-9-9-9-9-9-|
|-9-9-9-9-9-9-9-9-9-9-9-9-9-9-9-9-7-7-7-7-7-7-7-7-7-7-7-7-7-7-7-7-|
|-----------------------------------------------------------------|x2

Guitar 2 (Albert)

E|---------------------------------------------------------------|
B|---------------------------------------------------------------|
G|-7-7--7------7-7--7--------------------------------------------|
D|---------9-7----------9-7--------------------------------------|
A|-----------------------------11-11--11-14-17---11-11--11-14-17-|
E|-0-0--0--0-0-0-0--0---0-0-----0--0---0--0--0----0--0---0--0--0-|x2

PRE-CHORUS:

Guitar 1 (Nick - “I said: ‘Please, don’t slow me down…’”)

|-----------------------------------------------------------------|
|-----------------------------------------------------------------|
|-7-7-7-7-7-7-7-7-7-7-7-7-7-7-7-7-9-9-9-9-9-9-9-9-9-9-9-9-9-9-9-9-|
|-9-9-9-9-9-9-9-9-9-9-9-9-9-9-9-9-9-9-9-9-9-9-9-9-9-9-9-9-9-9-9-9-|
|-9-9-9-9-9-9-9-9-9-9-9-9-9-9-9-9-7-7-7-7-7-7-7-7-7-7-7-7-7-7-7-7-|
|-----------------------------------------------------------------|x2

Guitar 2 (Albert)

E|---------------------------------------------------------------|
B|---------------------------------------------------------------|
G|-7-7--7------7-7--7--------------------------------------------|
D|---------9-7----------9-7--------------------------------------|
A|-----------------------------11-11--11-14-17---11-11--11-14-17-|
E|-0-0--0--0-0-0-0--0---0-0-----0--0---0--0--0----0--0---0--0--0-|x2



INTERLUDE:

Guitar 1 (Nick, alone)

e|-----------------------------------------------------------------------------|
B|-15-15-15/10-10--10/12-12--12/14--14/12-12--12/14-14--14/10-10--10/15-15--15-|
G|-X--X---X/X---X---X/X--X----X/X----X/X--X----X/X--X----X/X--X----X/X--X---X--|
D|-X--X---X/X---X---X/X--X----X/X----X/X--X----X/X--X----X/X--X----X/X--X---X--|
A|-14-14-14/9--9---9/10-10--10/12---12/10-10--10/12-12--12/9--9----9/14-14--14-|
E|-----------------------------------------------------------------------------|X2


CHORUS:

Guitar 1 (Nick - “Yeah, the night is not over…”)

e|-----------------------------------------------------------------------------|
B|-15-15-15/10-10--10/12-12--12/14--14/12-12--12/14-14--14/10-10--10/15-15--15-|
G|-X--X---X/X---X---X/X--X----X/X----X/X--X----X/X--X----X/X--X----X/X--X---X--|
D|-X--X---X/X---X---X/X--X----X/X----X/X--X----X/X--X----X/X--X----X/X--X---X--|
A|-14-14-14/9--9---9/10-10--10/12---12/10-10--10/12-12--12/9--9----9/14-14--14-|
E|-----------------------------------------------------------------------------|X4

Guitar 2 (Albert)

E|-7------10-9-------9-7---7--10-9----12-9-7---7--10-9----12-9-------9-10-7---9-|
B|---7-10------7-10------8---------10--------8---------10------7-8-7--------7---| 
G|------------------------------------------------------------------------------|  
D|------------------------------------------------------------------------------|  
A|------------------------------------------------------------------------------| 
E|------------------------------------------------------------------------------|x4

END:

Guitar 2 (Albert)

B|---------7b9--7b9---------|

Guitar 1 and 2

e|----7---|
B|----7---|
G|----7---|


LYRICS AND CHORDS:

VERSE 1:

Bm                         E          E7 
He seemed impressed by the way you came in. 
Bm 
"Tell us a story 
   E          E7 
I know you're not boring." 
Bm                  E             E7 
I was afraid that you would not insist. 
Bm 
"You sound so sleepy,
     E              E7 
just take this, now leave me." 
 

PRE-CHORUS:
 
Bm             
I said: “Please, don't slow me down 
             E     E7 
if I'm going too fast… 
Bm                      E     E7 
You're in a strange part of our town...” 
 
CHORUS:
 
D         F#m 
Yeah, the night's not over. 
G          A           D 
You're not trying hard enough. 
      F#m              G 
Our lives are changing lanes. 
     A             D 
You ran me off the road. 
    F#m 
The wait is over.
G         A 
I'm now taking over. 
D         F#m 
You're not longer laughing. 
G          A 
I'm not drowning fast enough. 
 
VERSE 2:

Bm                    E        E7   
Now every time that I look at myself, 
Bm 
I thought I told ya: 
      E       E7 
“This world is not for ya." 
 
VERSE 3:
 
Bm                            E         E7 
The room is on fire and she's fixing her hair. 
Bm 
"You sound so angry. 
      E            E7 
Just calm down, you found me." 


PRE-CHORUS:
 
Bm             
I said: “Please, don't slow me down 
             E     E7 
if I'm going too fast… 
Bm                      E     E7 
You're in a strange part of our town...” 
 
CHORUS:
 
D         F#m 
Yeah, the night's not over. 
G          A           D 
You're not trying hard enough. 
      F#m              G 
Our lives are changing lanes. 
     A             D 
You ran me off the road. 
    F#m 
The wait is over.
G         A 
I'm now taking over. 
D         F#m 
You're not longer laughing. 
G          A 
I'm not drowning fast enough.

| THE END |





Calificar esta versión:
Aviso: Este fichero es trabajo propio de su transcriptor y representa su interpretación personal de la canción. El material contenido en esta página es para exclusivo uso privado, por lo que se prohibe su reproducción o retransmisión, así como su uso para fines comerciales.
Más versiones de Reptilia, The Strokes
Reptilia
acordes
Reptilia
tablatura
Reptilia (ver 2)
tablatura
Reptilia (ver 3)
tablatura
Reptilia (ver 4)
tablatura
Reptilia (ver 5)
tablatura
Reptilia
bajo
Reptilia
bateria
Descubre más canciones de The Strokes