Another Brick In The Wall, Pink Floyd (tablatura) (ver 2)

Autor: devils masked | 18095 visualizaciones

1---------------------------------------------------------------
2-------3-5-6-5---3-5-6-5-----3-5-6-5-------3-5-6--------------
3---------------------------------------------------------------
4---------------------------------------------------------------
5---------------------------------------------------------------
6---------------------------------------------------------------
     x2
Hey teacher leave us kids alone 
1------3--3-3--5-3-1-3-1----------------------------------------
2---------------------------------------------------------------
3---------------------------------------------------------------
4---------------------------------------------------------------
5---------------------------------------------------------------
6---------------------------------------------------------------

All in all it's just another brick in the wall 
1---1-1-1-1-1-1-0-0---------------------------------------------
2--------------------3-1-3--------------------------------------
3---------------------------------------------------------------
4---------------------------------------------------------------
5---------------------------------------------------------------
6---------------------------------------------------------------
    x2

Todo esto se repite dos veces
Calificar esta versión:
Aviso: Este fichero es trabajo propio de su transcriptor y representa su interpretación personal de la canción. El material contenido en esta página es para exclusivo uso privado, por lo que se prohibe su reproducción o retransmisión, así como su uso para fines comerciales.