Another Brick In The Wall, Pink Floyd (acordes) (ver 3)

Autor: santy2626 | 38426 visualizaciones

cdmfg
riff.1 [segunda guitarra] melodia de la voz se repite 4 veces

e|-------------------------|
B|-------------------------|
G|-------------------------|
D|-------------------------|
A|5-7-8-8-5-7-8------------|
E|-------------------------|


riff.2
e|----------------------|
B|----------------------|
G|----------------------|
D|-0--2--3--2---0--2--3-|
A|----------------------|
E|----------------------|



riff.3
|-10---8---10--10---8--8---7-7-7--5-|
|-10---8---10--10---8--8---8-8-8--6-|
|-10---9---10--10---9--9---7-7-7--5-|
|-----------------------------------|
|-----------------------------------|
|-----------------------------------|



Dm [riff.1]
We don't need no education
Dm [riff.2]
We don't need no thought control
Dm [riff.1]
No dark sarcasm in the classroom
Dm [riff.2]                    |G  |
Teachers leave them kids alone

G                                 |Dm |riff.3 |
Hey teacher leave them kids alone

F                     C                   Dm 
All in all it's just another brick in the wall
F                        C                  Dm
All in all you?re just another brick in the wall

We don't need no education
We don't need no thought control
No dark sarcasm in the classroom
Teachers leave them kids alone

Hey teacher leave them kids alone

All in all you?re just another brick in the wall
All in all you?re just another brick in the wall
 
Solo:

e|----------------------10------------10--------|
B|-13p10----10-------10----13b15vvv---10-10--10-|
G|-------12----12b14------------------10-10--10-|
D|----------------------------------------------|
A|----------------------------------------------|
E|----------------------------------------------|

e|------------------------------------|
B|-13b15-13b17r13vvv---13p10----------|
G|---------------------------12-12b14-|
D|------------------------------------|
A|------------------------------------|
E|------------------------------------|

e|--------------------------------------------|
B|-----------------------10----------10-10----|
G|-10p9----9-------12----10----------10-10----|
D|------12---10/12----12------12-12--------12-|
A|--------------------------------------------|
E|--------------------------------------------|

e|---------------------------13b15--13-13--------------------|
B|-10-10------10-12-10-----x---------------13b15b17b18r15b17-|
G|-10-10------10-12-10----x----------------------------------|
D|-------12--------------x-----------------------------------|
A|-----------------------------------------------------------|
E|-----------------------------------------------------------|
                          
e|----------10-------------------------------------------------|
B|-------10----13p10-------------------------------------------|
G|-12b14-------------12b14r12p10--12p10----10-----12-10--------|
D|--------------------------------------12----12--12-10--------|
A|-------------------------------------------------------12p10-|
E|-------------------------------------------------------------|

e|----------------------------------------|
B|----------------------------------------|
G|----------------------------------------|
D|----------------------------------------|
A|-12p10-8-10p8----------------8----------|
E|--------------10p8-10--10-10---10p8-10-|

e|---------------------------------------------------------------|
B|--------5h6p5-------------------6b8-----13b15---13b15b17r13vvv-|
G|----5-7-------7-7p5---5-7-x-7p5--------------------------------|
D|-/7-----------------7------------------------------------------|
A|---------------------------------------------------------------|
E|---------------------------------------------------------------|

e|--x-15b17-13---------13-12--15b17r15b17r15b17rb15--15b17-----|
B|-------------15--/15--------------------------------------15-|
G|-------------------------------------------------------------|
D|-------------------------------------------------------------|
A|-------------------------------------------------------------|
E|-------------------------------------------------------------|

|-18b20-20--20b22--20p17--20p17----------------|
|----------------------------------------------|
|-------------------------------10-10-10b11----|
|-------------------------------------------12-|
|----------------------------------------------|
|----------------------------------------------|

|------------------12-----------------------------|
|------------------13----11---12--12--10----------|
|-----------10/12--12--x-10---12--12?-10p9--x-----|
|-xx-xx-xx?-12/14--14--x-12-----------------x--12-|
|-xx-xx-xx----------------------------------------|
|-------------------------------------------------|

|-----------------------------------------|
|-10b11-x---------------------------------|
|-10b11-x-----x--x-x----------------------|
|-------------x--x-x----------------------|
|----------12------------8b9-10-x---------|
|--------------------10-----------8-------|
|-----------------------------------10vvv-|
Calificar esta versión:
Aviso: Este fichero es trabajo propio de su transcriptor y representa su interpretación personal de la canción. El material contenido en esta página es para exclusivo uso privado, por lo que se prohibe su reproducción o retransmisión, así como su uso para fines comerciales.