Another Brick In The Wall, Pink Floyd (bajo) (ver 2)

Autor: Anónimo | 39121 visualizaciones

Primera parte: 
"We don´t need no education
G---------------------------------------
D---------------------------------------
A--0/5-3-0-5--0/5-3-0-2-4---------------
E---------------------------------------

 We donn´t need no thought control
G---------------------------------------
D---------------------------------------
A--0/5-3-0-5--0/5-3-0-2-4---------------
E---------------------------------------
 Bis en la otra estrofa

...the kidz alone
G---------------------------------------
D---------------5555--5555--------------
A--------------------5------------------
E---------------------------------------
  Hey! Teacher! Leave the kids alone
G--------------------------------------------------------------
D--5------5-------5-5-5----------------------------------------
A----------------------------------0/5-3-0-5--0/5-3-0-2-4------
E--------------------------------------------------------------

  All in all you are just another breck in the wall
G--------------------------------------------------------------------------
D--------------------------------------------------------------------------
A--7-7-7-7-----------------5-5-5-5-----------------0/5-3-0-5--0/5-3-0-2-4--
E--------------------------------------------------------------------------

 Repite la cación el coro de niños con la misma base

 Final solo de guitarra
G---------------------------------------
D---------------------------------------
A--0/5-3-0-5--0/5-3-0-2-4---------------
E---------------------------------------

Comentarios del colaborador: Espero que les sirva,espero correcciones y comentarios. Gracias

Calificar esta versión:
Aviso: Este fichero es trabajo propio de su transcriptor y representa su interpretación personal de la canción. El material contenido en esta página es para exclusivo uso privado, por lo que se prohibe su reproducción o retransmisión, así como su uso para fines comerciales.