Another Brick In The Wall, Pink Floyd (tablatura)

Autor: xxblackxpinkxx | 35011 visualizaciones

'Another Brick in the Wall', Pink Floyd (Parte 2)
_________________________________________________________
*Transcripto por Seba A.
*msn o email por cualquier duda o comentario: playing.the.angel_@hotmail.com 
o tambien:
sebbastian.justxlikexheaven@hotmail.com
*Buenos aires, argentina, 2007
_________________________________________________________

Referencias:

| /  slide up
|   slide down
| h  hammer-on
| p  pull-off
| ~  vibrato/tremolo
| +  harmonic
| x  Palm Mute
_________________________________________________________

INTRO:
e|---------------------------------------------------------------------------
B|---------------------------------------------------------------------------
G|7----9----10---9--------7----9----10---9-----------------------------------
D|---------------------------------------------------------------------------
A|5----7----8----7--------5----7----8----7-----------------------------------
E|---------------------------------------------------------------------------
'We don't need no education'

e|5--5-5--5--5---
B|5--6-6--5--6---
G|5--5-5--5--5---
D|5--7-7--5--7---
A|5--5-5--5--5---
E|---------------
//INTERVALO, repite esta figura una vez más//


e|---------------------------------------------------------------------------
B|---------------------------------------------------------------------------
G|7----9----10---9--------7----9----10v--------------------------------------
D|---------------------------------------------------------------------------
A|5----7----8----7--------5----7----8v---------------------------------------
E|---------------------------------------------------------------------------
'We don't thought controls'

e|8--8-8---7---7----
B|6--6-6---6---6----
G|7--7-7---7---7----
D|------------------
A|------------------
E|------------------
//INTERVALO, repite esta figura una vez más//


e|---------------------------------------------------------------------------
B|---------------------------------------------------------------------------
G|7----9----10---9--------7----9----10---9-----------------------------------
D|---------------------------------------------------------------------------
A|5----7----8----7--------5----7----8----7-----------------------------------
E|---------------------------------------------------------------------------
'No dark sarcasm in the classroom'

e|5--5-5--5--5---
B|5--6-6--5--6---
G|5--5-5--5--5---
D|5--7-7--5--7---
A|5--5-5--5--5---
E|---------------
//INTERVALO, repite esta figura una vez más//


e|---------------------------------------------------------------------------
B|---------------------------------------------------------------------------
G|7----9----10---9--------7----9----10v--------------------------------------
D|---------------------------------------------------------------------------
A|5----7----8----7--------5----7----8v---------------------------------------
E|---------------------------------------------------------------------------
'Teacher leave them kids alone'



===========================================================

e|---------------------------------------------------------------------------|
B|---------------------------------------------------------------------------|
G|12----12--12-12--14-12-10-12-10--7v----------------------------------------
D|---------------------------------------------------------------------------|
A|10----10--10-10--12-10-8--10-8---5v----------------------------------------
E|---------------------------------------------------------------------------|
'HEY! TEACHERS! Leave them kids alone!'

e|10-10-10--8-8--7-7--5-5-----------------------------------------------------
B|10-10-10--8-8--8-8--6-6-----------------------------------------------------
G|---------------------------------------------------------------------------|
D|---------------------------------------------------------------------------|
A|---------------------------------------------------------------------------|
E|---------------------------------------------------------------------------|
//INTERVALO//

e|1v--------------0------------------------------------------------------------
B|1v--------------1---------------6v-------------------------------------------
G|2v--------------0---------------7v-------------------------------------------
D|3v--------------2---------------7v-------------------------------------------
A|3v--------------3------------------------------------------------------------
E|1v---------------------------------------------------------------------------
'All in all you're just a-nother brick in the wall'

e|1v--------------0------------------------------------------------------------
B|1v--------------1---------------6v-------------------------------------------
G|2v--------------0---------------7v-------------------------------------------
D|3v--------------2---------------7v-------------------------------------------
A|3v--------------3------------------------------------------------------------
E|1v---------------------------------------------------------------------------
'All in all you're just a-nother brick in the wall'


____________________________________________________________________________________________________________

e|---------------------------------------------------------------------------
B|---------------------------------------------------------------------------
G|7----9----10---9--------7----9----10---9-----------------------------------
D|---------------------------------------------------------------------------
A|5----7----8----7--------5----7----8----7-----------------------------------
E|---------------------------------------------------------------------------
'We don't need no education'

e|5--5-5--5--5---
B|5--6-6--5--6---
G|5--5-5--5--5---
D|5--7-7--5--7---
A|5--5-5--5--5---
E|---------------
//INTERVALO, repite esta figura una vez más//


e|---------------------------------------------------------------------------
B|---------------------------------------------------------------------------
G|7----9----10---9--------7----9----10v--------------------------------------
D|---------------------------------------------------------------------------
A|5----7----8----7--------5----7----8v---------------------------------------
E|---------------------------------------------------------------------------
'We don't thought controls'

e|8--8-8---7---7----
B|6--6-6---6---6----
G|7--7-7---7---7----
D|------------------
A|------------------
E|------------------
//INTERVALO, repite esta figura una vez más//


e|---------------------------------------------------------------------------
B|---------------------------------------------------------------------------
G|7----9----10---9--------7----9----10---9-----------------------------------
D|---------------------------------------------------------------------------
A|5----7----8----7--------5----7----8----7-----------------------------------
E|---------------------------------------------------------------------------
'No dark sarcasm in the classroom'

e|5--5-5--5--5---
B|5--6-6--5--6---
G|5--5-5--5--5---
D|5--7-7--5--7---
A|5--5-5--5--5---
E|---------------
//INTERVALO, repite esta figura una vez más//


e|---------------------------------------------------------------------------
B|---------------------------------------------------------------------------
G|7----9----10---9--------7----9----10v--------------------------------------
D|---------------------------------------------------------------------------
A|5----7----8----7--------5----7----8v---------------------------------------
E|---------------------------------------------------------------------------
'Teacher leave them kids alone'



===========================================================

e|---------------------------------------------------------------------------|
B|---------------------------------------------------------------------------|
G|12----12--12-12--14-12-10-12-10--7v----------------------------------------
D|---------------------------------------------------------------------------|
A|10----10--10-10--12-10-8--10-8---5v----------------------------------------
E|---------------------------------------------------------------------------|
'HEY! TEACHERS! Leave them kids alone!'

e|10-10-10--8-8--7-7--5-5-----------------------------------------------------
B|10-10-10--8-8--8-8--6-6-----------------------------------------------------
G|---------------------------------------------------------------------------|
D|---------------------------------------------------------------------------|
A|---------------------------------------------------------------------------|
E|---------------------------------------------------------------------------|
//INTERVALO//

e|1v--------------0------------------------------------------------------------
B|1v--------------1---------------6v-------------------------------------------
G|2v--------------0---------------7v-------------------------------------------
D|3v--------------2---------------7v-------------------------------------------
A|3v--------------3------------------------------------------------------------
E|1v---------------------------------------------------------------------------
'All in all you're just a-nother brick in the wall'

e|1v--------------0------------------------------------------------------------
B|1v--------------1---------------6v-------------------------------------------
G|2v--------------0---------------7v-------------------------------------------
D|3v--------------2---------------7v-------------------------------------------
A|3v--------------3------------------------------------------------------------
E|1v---------------------------------------------------------------------------
'All in all you're just a-nother brick in the wall'


____________________________________________________________________________________
SOLO DE GUITARRA:
|------------------------------------10---------------------------------------
|-13p10----10----13---13b(15)>>>>>>--10-10---10-----13b(15)r13--13b(17)>>>r13-
|-------12----12---------------------10-10---10-------------------------------
|-----------------------------------------------------------------------------
|-----------------------------------------------------------------------------
|-----------------------------------------------------------------------------

|-----------------------------------------------------12-
|-13p10-----------------------------------------------12-
|-------12---12b(14)>>>r12-----109----9---------12------
|-----------------------------------12---10-12-----------
|--------------------------------------------------------
|--------------------------------------------------------

|------------------------------------------------------
|-10---------10---10--------10---10--------10---12-10^-
|-10---------10---10--------10---10--------10---12-10^-
|----12-12-----------12-------------12-----------------
|------------------------------------------------------
|------------------------------------------------------

|-------13b(15)>>>>>>>r13-----13---13-----13b(15)r13b(17)>>(18)<<(15)-
|-----x---------------------------------------------------------------
|---x-----------------------------------------------------------------
|-x-------------------------------------------------------------------
|---------------------------------------------------------------------
|---------------------------------------------------------------------

|--------------10-------------------------------------------------------------
|-----------10----13p10-------------------------------------------------------
|-12b(14)---------------12---12p10---12p10------10----------------------------
|------------------------------------------12------12-----12p10---------------
|---------------------------------------------------------------12p10-1210-8-
|-----------------------------------------------------------------------------

|--------------------------------------------------------------------------------
|-------------------------------------------------------5h6p5--------------------
|-----------------------------------------------5---7---------7---7p5------5b(6)-
|------------------------------------------/7-------------------------7----------
|-10p8-----------------8---------------------------------------------------------
|------10p8-10---10-10---10p8---10-----------------------------------------------

|----------------------------------------------------------------------------
|---------6b(8)>>>>---------13pb(15)>>>>>r(13)-13b(15)>>>(17)>>>>>r13-13-----
|-7-7-7p5--------------------------------------------------------------------
|----------------------------------------------------------------------------
|----------------------------------------------------------------------------
|----------------------------------------------------------------------------

|-----15b(17)>>>>>>>---13p10-----------13---12---15b(17)r15b(17)r15b(17)r15b(17)>>>>>**-
|---x----------------x-------------/15--------------------------------------------------
|-x-------------------------------------------------------------------------------------
|---------------------------------------------------------------------------------------
|---------------------------------------------------------------------------------------
|---------------------------------------------------------------------------------------

|-15pb(17)>>r(15)---15-------18b(20)-----18pb(20)--------20b(22)-
|----------------------------------------------------------------
|----------------------------------------------------------------
|----------------------------------------------------------------
|----------------------------------------------------------------
|----------------------------------------------------------------

                                                                (P.M.>)
|-20p17---------20p17---------------------------------------------------
|-----------------------------------------------------------------------
|--------------------------------10-----10---10^------------x---(10-10)-
|------------------------------------------------12---------x---(10-10)-
|-----------------------------------------------------------------------
|-----------------------------------------------------------------------

|----------------------------------------------------
|-------------------------12-------12-----10--------
|---------12-----x--------12-------12-----10-----p9-
|-12/14---14-----x-12--------------------------------
|----------------------------------------------------
|----------------------------------------------------

|-------------------------------------------------------
|------10-x-x----------x-------x-x----------------------
|-x----10-x-x----------x-------x-x----------------------
|-x-12--------12----------------------------------------
|----------------------------------10---8h10-10-x-8-----
|---------------------------------------------------10--

Fin

Comentarios del colaborador: solo de guitarra tomado de ultimate-guitar.com por extensión

Calificar esta versión:
Aviso: Este fichero es trabajo propio de su transcriptor y representa su interpretación personal de la canción. El material contenido en esta página es para exclusivo uso privado, por lo que se prohibe su reproducción o retransmisión, así como su uso para fines comerciales.