Breed, Nirvana (tablatura) (ver 3)

Autor: KurtNotDead | 18481 visualizaciones

^ hacen vibrar la cuerda

Introduccion:

e|-----------------------------|
B|-----------------------------|
G|-----------------------------|
D|--4--4--0--/7--0-------------|  x11
A|--4--4--0--/7--0-------------|
E|--2--2--0--/5--0-------------|
________________________________________________________________

Verso:

e|-----------------------------|
B|-----------------------------|
G|---11--11--11--11-11--11-----|
D|--------------------------7^-|  x3
A|--9--9--9--9--9--9--9--9-----|
E|-----------------------------|

e|-----------------------------|
B|-----------------------------|
G|-----------------------------|
D|---11--11--11--11--11--11----|
A|--9--9--9--9--9--9--9--9-----|
E|-----------------------------|

I don't care, I don't care, I don't care, I don't care, I don't care
Care if I'm old

I don't mind, I don't mind, I don't mind, I don't mind, I don't mind
If I don't have a mind

Get away, get away, get away, get away, get away, get away, get away
Way from your home

I'm afraid, I'm afraid, I'm afraid, I'm afraid, I'm afraid, I'm afraid
Of a ghost 
________________________________________________________________

Coro:

e|--2--2--2--0--0-----------------|
B|--3--3--3--2--2-----------------|
G|--2--2--2--2--2--5--5--5--4--4--|
D|--0--0--0--2--2--5--5--5--4--4--|  x4
A|-----------0--0--3--3--3--2--2--|
E|--------------------------------|

Even if you have
Even if you need
I don't mean to stare
We don't have to breed
We could plant a house
We could build a tree
I don't even care
We could have all three

________________________________________________________________

Estrofa:

e|-----------------------------|
B|-----------------------------|
G|-----------------------------|
D|--4--4--0--/7--0-------------|  x8
A|--4--4--0--/7--0-------------|
E|--2--2--0--/5--0-------------|

She Said

________________________________________________________________

Verso:

e|-----------------------------|
B|-----------------------------|
G|-----------------------------|
D|---11--11--11--11--11--11--7^|  x3
A|--9--9--9--9--9--9--9--9-----|
E|-----------------------------|

e|-----------------------------|
B|-----------------------------|
G|-----------------------------|
D|---11--11--11--11--11--11----|
A|--9--9--9--9--9--9--9--9-----|
E|-----------------------------|

I don't care, I don't care, I don't care, I don't care, I don't care
Care if I'm old

I don't mind, I don't mind, I don't mind, I don't mind, I don't mind
If I don't have a mind

Get away, get away, get away, get away, get away, get away, get away
Way from your home

I'm afraid, I'm afraid, I'm afraid, I'm afraid, I'm afraid, I'm afraid
Of a ghost 

________________________________________________________________


Coro:

e|--2--2--2--0--0-----------------|
B|--3--3--3--2--2-----------------|
G|--2--2--2--2--2--5--5--5--4--4--|
D|--0--0--0--2--2--5--5--5--4--4--|  x4
A|-----------0--0--3--3--3--2--2--|
E|--------------------------------|

Even if you have
Even if you need
I don't mean to stare
We don't have to breed
We could plant a house
We could build a tree
I don't even care
We could have all three

________________________________________________________________
Solo:

e---------------------------------------------------------------|
B---------------------------------------------------------------|
G--10--10--10--10--10--10--10--10--10--10--10--12--12--12--10---|
D--11--11--11--11--11--11--11--11--11--11--11--13--13--13--11---|
A--9---9---9---9---9---9---9---9---9---9---9---11--11--11--9----|
E---------------------------------------------------------------|
                      
e---------------------------------------------------------------|
B---------------------------------------------------------------|
G-/14--14--14--14--14--14--14--14--14--14--14--16--16--16--14---|
D-/15--15--15--15--15--15--15--15--15--15--15--17--17--17--15---|
A-/13--13--13--13--13--13--13--13--13--13--13--15--15--15--13---|
E---------------------------------------------------------------|
                             
e---------------------------------------------------------------|
B---------------------------------------------------------------|
G-/16--16--16--16--16--16--16--16--16--16--16--18--18--18--16---|
D-/17--17--17--17--17--17--17--17--17--17--17--19--19--19--17---|
A-/15--15--15--15--15--15--15--15--15--15--15--17--17--17--15---|
E---------------------------------------------------------------|
                                                                e---------------------------------------------------------------|
B---------------------------------------------------------------|
G-/18--18--18--18--18--18--18--18--18--18--18--20--20--20--21---|
D-/19--19--19--19--19--19--19--19--19--19--19--21--21--21--22---|
A-/17--17--17--17--17--17--17--17--17--17--17--19--19--19--20---|
E---------------------------------------------------------------|
________________________________________________________________

Coro:

e|--2--2--2--0--0-----------------|
B|--3--3--3--2--2-----------------|
G|--2--2--2--2--2--5--5--5--4--4--|
D|--0--0--0--2--2--5--5--5--4--4--|  x4
A|-----------0--0--3--3--3--2--2--|
E|--------------------------------|

Even if you have
Even if you need
I don't mean to stare
We don't have to breed
We could plant a house
We could build a tree
I don't even care
We could have all three

________________________________________________________________

Estrofa:

e|-----------------------------|
B|-----------------------------|
G|-----------------------------|
D|--4--4--0--/7--0-------------|  x7
A|--4--4--0--/7--0-------------|
E|--2--2--0--/5--0-------------|

She Said

y termina asi

e|-----|
B|-----|
G|-----|
D|--4--|
A|--4--|
E|--2--|
Calificar esta versión:
Aviso: Este fichero es trabajo propio de su transcriptor y representa su interpretación personal de la canción. El material contenido en esta página es para exclusivo uso privado, por lo que se prohibe su reproducción o retransmisión, así como su uso para fines comerciales.
Más versiones de Breed, Nirvana
Breed
tablatura
Breed (ver 2)
tablatura
Breed (ver 3)
tablatura
Breed
bajo
Breed (ver 2)
bajo
Descubre más canciones de Nirvana