Breed, Nirvana (bajo) (ver 2)

Autor: kurtvedder | 29194 visualizaciones

Coro

1 -----------------        1 ----------------------------
2 -----------------        2 ----------------------------
3 -----------------  x18   3 -5-5-5-0-0--0--3-3-3-2-2--2-  x4
4 --2-2-0-2-5--0---        4 ----------------------------


                           Coro
                  
1 -----------------        1 ----------------------------
2 -----------------        2 ----------------------------
3 -----------------  x16   3 -5-5-5-0-0--0--3-3-3-2-2--2-  x4
4 --2-2-0-2-5--0---        4 ----------------------------
                          
                            Solo


1 -----------------        1 -----------------        
2 -----------------        2 -----------------
3 -----------------  x 8   3 -----------------  x 17
4 --2-2-0-2-5--0---        4 --2-2-0-2-5--0---  

Coro Final
                  
1 ----------------------------      1 ------------ 1 -----------    
2 ----------------------------      2 ------------ 2 -----------
3 -5-5-5-0-0--0--3-3-3-2-2--2-  x4  3 ------------ 3 -----------
4 ----------------------------      4 -2-2-0-2-5-- 4 -2-2-0-2-5-

Comentarios del colaborador: aqui una cancion que siempre tocamos con mi banda esta competamente correcta !

Calificar esta versión:
Aviso: Este fichero es trabajo propio de su transcriptor y representa su interpretación personal de la canción. El material contenido en esta página es para exclusivo uso privado, por lo que se prohibe su reproducción o retransmisión, así como su uso para fines comerciales.
Más versiones de Breed, Nirvana
Breed
tablatura
Breed (ver 2)
tablatura
Breed (ver 3)
tablatura
Breed
bajo
Breed (ver 2)
bajo
Descubre más canciones de Nirvana