Breed, Nirvana (tablatura)

Autor: nirvana_punk | 32417 visualizaciones

Intro:
e|---------------------------------|---------------------------------|
B|---------------------------------|---------------------------------|
G|-*-----------------------------*-|-*-------------------------------|
D|-*--4--4--4--4--7-----------2--*-|-*--4--4--4--4--7----------------|
A|----4--4--4--4--7-Bend------2----|----4--4--4--4--7-Bend-----------|
E|----2--2--0--2--5-----------0----|----2--2--0--2--5-----------0----|

Riff 1:
e|---------------------------------|---------------------------------|
B|---------------------------------|---------------------------------|
G|-*-------------------------------|-------------------------------*-|
D|-*--4--4-------------------------|----4--4-----------------------*-|
A|----4--4-------------------------|----4--4-------------------------|
E|----2--2--0--2--5-Bend------0----|----2--2--0--2--5-Bend------0----|

Verse:
e|-----------------------------|-----|-----|-------------------------|
B|-----------------------------|-----|-----|-------------------------|
G|-----------------------------|-----|-----|-------------------------|
D|---11-11-11-11--11-11-11-11--|--%--|--%--|--11-11-11---------------|
A|---9--9--9--9---9--9--9--9---|-----|-----|--9--9--9--9-Bend--9-7---|
E|-----------------------------|-----|-----|-------------------------|

e|-----------------------------|
B|-----------------------------|
G|-----------------------------|
D|----4-4-4-4---4-4-4-0--------|
A|----4-4-4-4---4-4-4-1--------|
E|----2-2-2-2---2-2-2----------|

I don't care, I don't care, I don't care, I don't care, I don't care
Care if I'm old

I don't mind, I don't mind, I don't mind, I don't mind, I don't mind
If I don't have a mind

Get away, get away, get away, get away, get away, get away, get away
Way from your home

I'm afraid, I'm afraid, I'm afraid, I'm afraid, I'm afraid, I'm afraid
Of a ghost 

Chorus:
  
      D           A                    C5          B5
e|----2--2--2----------------------|---------------------------------|
B|----3--3--3--X--2------2--X------|---------------------------------|
G|----2--2--2--X--2------2--X------|---5--5--5--X--4------4--X-------|
D|----0--0--0--X--2------2--X------|---5--5--5--X--4------4--X-------|
A|---------------------------------|---3--3--3--X--2------2--X-------|
E|---------------------------------|---------------------------------|

She said (with Riff 1)

SOLO
e----------------------------------------------------------------------------
b----------------------------------------------------------------------------
g--11--11--11--11---11--11--11--11---11--11--11--11---11--10--9--7----------
d----------------------------------------------------------------------------
a---9---9---9---9----9---9---9---9----9---9---9---9----9---8--7--5----------
e----------------------------------------------------------------------------
                      
e----------------------------------------------------------------------------
b----------------------------------------------------------------------------
g--/14--14--14--14---14--14--14--14---14--14--14--14---14--13-12-(12)-------
d----------------------------------------------------------------------------
a--/12--12--12--12---12--12--12--12---12--12--12--12---12--11-10-(10)-------
e----------------------------------------------------------------------------
                             
e----------------------------------------------------------------------------
b-----------------------(18)----(18)-----(18)(18)-----(18)-------------------
g--/17--17--17--17---17--17--17--17---17--17--17--17---17--18--16--15--14---
d----------------------------------------------------------------------------
a--/15--15--15--15---15--15--15--15---15--15--15--15---15--16--14--13--12---
e----------------------------------------------------------------------------
                                                                          
e----------------------------------------------------------------------------
b----------------------------------------------------------------------------
g--/19--19--19--19---19--19--19--19---19--19--19--19---20--20--21--21--22--22
d----------------------------------------------------------------------------
a--/17--17--17--17---17--17--17--17---17--17--17--17---18--18--19--19--20--20
e----------------------------------------------------------------------------

Even if you have
Even if you need
I don't mean to stare
We don't have to breed
We could plant a house
We could build a tree
I don't even care
We could have all three

She said (with Riff 1)
Calificar esta versión:
Aviso: Este fichero es trabajo propio de su transcriptor y representa su interpretación personal de la canción. El material contenido en esta página es para exclusivo uso privado, por lo que se prohibe su reproducción o retransmisión, así como su uso para fines comerciales.
Más versiones de Breed, Nirvana
Breed
tablatura
Breed (ver 2)
tablatura
Breed (ver 3)
tablatura
Breed
bajo
Breed (ver 2)
bajo
Descubre más canciones de Nirvana