Breed, Nirvana (bajo)

Autor: angel_pitagoras | 25843 visualizaciones

ESTA SUPER FACIL LA ROLA, SOLO HAY QUE TENER MUCHA MOVILIDAD EN LAS MUÑECAS Y LOS DEDOS PARA LLEVAR EXACTAMENTE EL TIEMPO QUE LLEVA LA CANCION...


INTRO: PRIMERO ENTRA LA GUITARRA, LUEGO LA BATERIA Y A LO ÚLTIMO EL BAJO HACIENDO ESTO:
G|--------------
D|--------------
A|--------------
E|-2-2-0-2-5--0-

Lo continúa haciendo hasta donde dice Even if you have y entonces hace esto:
G|---------------------------
D|---------------------------
A|-5-5-5--------3-3-3-2-2--2-
E|-------5-5--5--------------

Y cuando dice She said vuelve a hacer esto:
G|--------------
D|--------------
A|--------------
E|-2-2-0-2-5--0-

Lo continúa haciendo hasta donde vuelve a decir Even if you have y vuelve a hacer esto:
G|---------------------------
D|---------------------------
A|-5-5-5--------3-3-3-2-2--2-
E|-------5-5--5--------------

Y lo hace hasta donde dice She said y regresa a lo del Intro y lo sigue haciendo durante todo el solo de guitarra:
G|--------------
D|--------------
A|--------------
E|-2-2-0-2-5--0-

Y lo hace durante todo el solo hasta donde vuelve a cambiar terminando el solo y vuelve a hacer esto
G|---------------------------
D|---------------------------
A|-5-5-5--------3-3-3-2-2--2-
E|-------5-5--5--------------

Y lo hace hasta donde vuelve a decir She said y lo sigue haciendo asta donde acaba la canción.
G|--------------
D|--------------
A|--------------
E|-2-2-0-2-5--0-

Y termina haciendo esto:
G|----
D|----
A|----
E|-2~-

Comentarios del colaborador: sale aii se las dejo para que la critiquen, usuarios porfavor califiquen al checarla y dejen su comentario, saludos

Calificar esta versión:
Aviso: Este fichero es trabajo propio de su transcriptor y representa su interpretación personal de la canción. El material contenido en esta página es para exclusivo uso privado, por lo que se prohibe su reproducción o retransmisión, así como su uso para fines comerciales.
Más versiones de Breed, Nirvana
Breed
tablatura
Breed (ver 2)
tablatura
Breed (ver 3)
tablatura
Breed
bajo
Breed (ver 2)
bajo
Descubre más canciones de Nirvana