About A Girl, Nirvana (tablatura) (ver 3)

Autor: nirvana27paramore | 30183 visualizaciones

INTRO
  
1.E|------3--3-3-3--|
2.B|----------------|
3.G|----------------|----{x8}   
4.D|--2-2-----------|
5.A|--2-2-2--2-2-2--|
6.E|------3--3-3-3--|
            



PARTE 1

I need an easy friend
I do... with an ear to lend
                
E|------3--3-3-3--|
B|----------------|
G|----------------|----{x8}   
D|--2-2-----------|
A|--2-2-2--2-2-2--|
E|------3--3-3-3--|
               
I do... think you fit this shoe
I do... but you have a clue

_______________________________
VERSO 

I'll take advantage while

E|------------------|-----|     
B|------------------|-----|     
G|-6-6--------------|-----|    
D|-6-6-6-6--3-3-X-3-|-3-3-|----(x2)
A|-4-4-6-6--3-3-X-3-|-3-3-|       
E|-----4-4--2-2-X-2-|-2-2-|       

You hang me out to dry



But I can't see you every night

E|--------------------------
B|--------2-2-2-------------
G|--------2-2-2--5-5-5-5-5-5
D|-2-2-2--2-2-2--5-5-5-5-5-5
A|-2-2-2---------3-3-3-3-3-3
E|--------------------------


___________________________

Free.. i do

E|------3--3-3-3--|
B|----------------|
G|----------------|----{x4}   
D|--2-2-----------|
A|--2-2-2--2-2-2--|
E|------3--3-3-3--|

_____________________________
PARTE 2

I'm standing in your line
I do... hope you have the time

E|------3--3-3-3--|
B|----------------|
G|----------------|----{x8}   
D|--2-2-----------|
A|--2-2-2--2-2-2--|
E|------3--3-3-3--|

I do... pick a number too
I do... keep a date with you

__________________________

DE NUEVO SE HACE EL VERSO----

 

I'll take advantage while

E|------------------|-----|     
B|------------------|-----|     
G|-6-6--------------|-----|    
D|-6-6-6-6--3-3-X-3-|-3-3-|----(x2)
A|-4-4-6-6--3-3-X-3-|-3-3-|       
E|-----4-4--2-2-X-2-|-2-2-|    

You hang me out to dry



But I can't see you every night

E|--------------------------
B|--------2-2-2-------------
G|--------2-2-2--5-5-5-5-5-5
D|-2-2-2--2-2-2--5-5-5-5-5-5
A|-2-2-2---------3-3-3-3-3-3
E|--------------------------


_____________________

 

Free.. 

E|------3--3-3-3--|
B|----------------|
G|----------------|----{x4}   
D|--2-2-----------|
A|--2-2-2--2-2-2--|
E|------3--3-3-3--|


_____________________________


SOLO:


E|------------------------------|
B|------------------------------|
G|----------9-9-9/12-12-12-12-12|
D|------5-7/9-9-9/12-12-12-12-12|-----(x4)
A|--5-7-------------------------|
E|------------------------------|


_______________________________


E|------------------|-----|     
B|------------------|-----|     
G|-6-6--------------|-----|    
D|-6-6-6-6--3-3-X-3-|-3-3-|----(x2)
A|-4-4-6-6--3-3-X-3-|-3-3-|       
E|-----4-4--2-2-X-2-|-2-2-|    


E|--------------------------
B|--------2-2-2-------------
G|--------2-2-2--5-5-5-5-5-5
D|-2-2-2--2-2-2--5-5-5-5-5-5
A|-2-2-2---------3-3-3-3-3-3
E|--------------------------


E|------3--3-3-3--|
B|----------------|
G|----------------|----{x4}   
D|--2-2-----------|
A|--2-2-2--2-2-2--|
E|------3--3-3-3--|


____________________________


I need an easy friend
I do... with an ear to lend
                
E|------3--3-3-3--|
B|----------------|
G|----------------|----{x8}   
D|--2-2-----------|
A|--2-2-2--2-2-2--|
E|------3--3-3-3--|
               
I do... think you fit this shoe
I do... but you have a clue


_______________________________


I'll take advantage while

E|------------------|-----|     
B|------------------|-----|     
G|-6-6--------------|-----|    
D|-6-6-6-6--3-3-X-3-|-3-3-|----(x2)
A|-4-4-6-6--3-3-X-3-|-3-3-|       
E|-----4-4--2-2-X-2-|-2-2-|       

You hang me out to dry



But I can't see you every night

E|--------------------------
B|--------2-2-2-------------
G|--------2-2-2--5-5-5-5-5-5--------(x2)
D|-2-2-2--2-2-2--5-5-5-5-5-5
A|-2-2-2---------3-3-3-3-3-3
E|--------------------------
_________________________


Free..... i do... i do... i do... i do... i do.....

E|------3--3-3-3--|
B|----------------|
G|----------------|----{x9}   
D|--2-2-----------|
A|--2-2-2--2-2-2--|
E|------3--3-3-3--|
Calificar esta versión:
Aviso: Este fichero es trabajo propio de su transcriptor y representa su interpretación personal de la canción. El material contenido en esta página es para exclusivo uso privado, por lo que se prohibe su reproducción o retransmisión, así como su uso para fines comerciales.
Más versiones de About A Girl, Nirvana
About A Girl
acordes
About A Girl (ver 2)
acordes
About A Girl (ver 3)
acordes
About A Girl (ver 4)
acordes
About A Girl (ver 5)
acordes
About A Girl (ver 6)
acordes
About A Girl (ver 7)
acordes
About A Girl
tablatura
About A Girl (ver 2)
tablatura
About A Girl (ver 3)
tablatura
About A Girl (ver 4)
tablatura
About A Girl
bajo
About A Girl (ver 2)
bajo
Descubre más canciones de Nirvana