About A Girl, Nirvana (acordes) (ver 3)

Autor: veryape94 | 45362 visualizaciones

Em

1|--------------------
2|--------------------
3|--------------------
4|--2-----------------
5|--2-----------------
6|--------------------


G
1|---3----------------
2|---3---------------
3|--------------------
4|--------------------
5|---2---------------
6|---3---------------


C#5 1 
1|-----4--------------
2|-----4-------------
3|-----------6--------
4|-----------6-------
5|-----4--------------
6|--------------------


C#5 2                                                                  
1|-----4--------------
2|-----4-------------
3|-----------6--------
4|-----------6-------
5|-----4--------------
6|-----4-------------


B
1|---2---------------
2|-----------4-------
3|-----------4-------
4|-----------4-------
5|---2---------------
6|--------------------







E 
1|-------------------
2|------------------
3|----1--------------
4|----2-------------
5|----2--------------
6|--------------------


A
1|---5---------------
2|---5---------------
3|---5--------------
4|---------7--------
5|---------7--------
6|---5----------------




C5
1|---3-------------
2|---3--------------
3|-----------5-------
4|-----------5-------
5|---3---------------
6|---3----------------




Em  G         Em    G
I  need  an  easy  friend
I do... with an ear to lend
I do... think you fit this shoe
I do... but you have a clue


		

C#5 1     C#5 2      B
I'll take advantage while

C#5 1     C#5 2      B
You hang me out to dry

Em                  A      C5 
But I can't see you every night

Em G Em G
Free

I'm standing in your line
I do... hope you have the time
I do... pick a number too
I do... keep a date with you


I'll take advantage while
You hang me out to dry
But I can't see you every night
Free



Solo:


1|----------------------------------
2|----------------------------------
3|----------------------------------
4|--------5---7----9----12----------
5|---5--7----------------------------
6|----------------------------------



I  need  an  easy  friend
I do... with an ear to lend
I do... think you fit this shoe
I do... but you have a clue


I'll take advantage while
You hang me out to dry
But I can't see you every night
But I can't see you every night
Free





Calificar esta versión:
Aviso: Este fichero es trabajo propio de su transcriptor y representa su interpretación personal de la canción. El material contenido en esta página es para exclusivo uso privado, por lo que se prohibe su reproducción o retransmisión, así como su uso para fines comerciales.
Más versiones de About A Girl, Nirvana
About A Girl
acordes
About A Girl (ver 2)
acordes
About A Girl (ver 3)
acordes
About A Girl (ver 4)
acordes
About A Girl (ver 5)
acordes
About A Girl (ver 6)
acordes
About A Girl (ver 7)
acordes
About A Girl
tablatura
About A Girl (ver 2)
tablatura
About A Girl (ver 3)
tablatura
About A Girl (ver 4)
tablatura
About A Girl
bajo
About A Girl (ver 2)
bajo
Descubre más canciones de Nirvana