About A Girl, Nirvana (tablatura)

Autor: nirv117 | 14851 visualizaciones

e------------------
b------------------  
g------------------   X4
d------5--7-9-12---
a--5-7-------------
e------------------



OK ESOS SON LOS TRASTESS
AHORAAA LES PONGOO COMO LO TOCO YOOO




e--------------------------------
b--------------------------------  
g--------------------------------   X4
d------5--7-7-7s9-9-9s12-12-12s5-
a--5-7---------------------------
e--------------------------------


PUES ASI LO HAGOOOO YOOO
YA DEPENDE DE USTEDESSS
LA PRIMER TABLATURAAA
SOLO SON LAS PISADASS
AHI ACOMODENLAS A SU GUSTOOO
Calificar esta versión:
Aviso: Este fichero es trabajo propio de su transcriptor y representa su interpretación personal de la canción. El material contenido en esta página es para exclusivo uso privado, por lo que se prohibe su reproducción o retransmisión, así como su uso para fines comerciales.
Más versiones de About A Girl, Nirvana
About A Girl
acordes
About A Girl (ver 2)
acordes
About A Girl (ver 3)
acordes
About A Girl (ver 4)
acordes
About A Girl (ver 5)
acordes
About A Girl (ver 6)
acordes
About A Girl (ver 7)
acordes
About A Girl
tablatura
About A Girl (ver 2)
tablatura
About A Girl (ver 3)
tablatura
About A Girl (ver 4)
tablatura
About A Girl
bajo
About A Girl (ver 2)
bajo
Descubre más canciones de Nirvana