About A Girl, Nirvana (bajo)

Autor: franco_tatengue88 | 26266 visualizaciones

Intro 
G-|----------------------------------|
D-|*--------------------------------*|
A-|*--------------------------------*| repeat(2x)
E-|--0--0-0-3--3-3-0--0-0-3-3-3-3----|
                                                                               
   Verse(I need a...)                                                                            
G-|----------------------------------|
D-|*----------------------5---------*|
A-|*---------------5/7--7----5-7-3--*| repeat(4x)
E-|--0--0-0-3--3-3-------------------|
                                                                               
   Chorus(Take advantage while...)                                                          
G-|-------------------------------------------------------------
D-|--------------------------------------------4--4-4--4-4-4-4--
A-|-4--4-4------------------------4--4-4------------------------
E-|--------4--4-4--2-2--2--2-2-2---------4--4-4-----------------
                                                                               
                                                                               
G-|------------------------------|
D-|------------------------------|
A-|--------7--7-7------3--3-3-3--|
E-|-0--0-0---------5-5-----------|
Calificar esta versión:
Aviso: Este fichero es trabajo propio de su transcriptor y representa su interpretación personal de la canción. El material contenido en esta página es para exclusivo uso privado, por lo que se prohibe su reproducción o retransmisión, así como su uso para fines comerciales.
Más versiones de About A Girl, Nirvana
About A Girl
acordes
About A Girl (ver 2)
acordes
About A Girl (ver 3)
acordes
About A Girl (ver 4)
acordes
About A Girl (ver 5)
acordes
About A Girl (ver 6)
acordes
About A Girl (ver 7)
acordes
About A Girl
tablatura
About A Girl (ver 2)
tablatura
About A Girl (ver 3)
tablatura
About A Girl (ver 4)
tablatura
About A Girl
bajo
About A Girl (ver 2)
bajo
Descubre más canciones de Nirvana