Black Dog, Led Zeppelin (tablatura) (ver 4)

Autor: guitar master skull | 21740 visualizaciones

esta es la de black dog de Led Zeppelin


EL  RIFF PRINCIPAL ES
e|--------------------------------------------------|
B|--------------------------------------------------|
G|----------5---7-9-5h7p5-----5---------------------|
D|---5-6-7----7-----------7-7---7-5-7-7---------2-2-|
A|-7-------7----------------------------5-7-3-5-0-0-|
E|--------------------------------------------------|
LUEGO SIGUE CANTANDO Y SE REPITE
e|--------------------------------------------------|
B|--------------------------------------------------|
G|----------5---7-9-5h7p5-----5---------------------|
D|---5-6-7----7-----------7-7---7-5-7-7---------2-2-|
A|-7-------7----------------------------5-7-3-5-0-0-|
E|--------------------------------------------------|
CANTA Y OTRA VEZ SE REPITE PERO CON UNA EXTENCION
e|--------------------------------------------------|
B|--------------------------------------------------|
G|----------5---7-9-5h7p5-----5---------------------|
D|---5-6-7----7-----------7-7---7-5-7-7---------2-2-|
A|-7-------7----------------------------5-7-3-5-0-0-|
E|--------------------------------------------------|
e|-------------------------------------------------------------|
B|-------------------------------------------------------------|
G|-------------------------------------------------------------|
D|-----------5-------------5-------------5---------------5-6---|
A|---5-6-7-----7---5-6-7-----7---5-6-7-----7---5-6-7-5-7-------|
E|-7-------7-----7-------7-----7-------7-----7-----------------|

e|----------------------------------------------------|
B|----------------------------------------------------|
G|-----5---7-9-5h7p5-----5----------------------0---2-|
D|-7-----7-----------7-7---7-5-7-7---------2-2--0---2-|
A|---7-----------------------------5-7-3-5-0-0----3-0-|
E|----------------------------------------------------|

e|-----------------------|-------------------------------------|
B|-----------------------|-------3-----------------------------|
G|----------------------2|----5b---5-4-2---2/4-----------------|
D|-----------------------|---------------4---------------------|
A|----------2---2---2/4--|-------------------------------------|
E|-2-5-2-5----5---5------|-------------------------------------|
Calificar esta versión:
Aviso: Este fichero es trabajo propio de su transcriptor y representa su interpretación personal de la canción. El material contenido en esta página es para exclusivo uso privado, por lo que se prohibe su reproducción o retransmisión, así como su uso para fines comerciales.
Más versiones de Black Dog, Led Zeppelin
Black Dog
tablatura
Black Dog (ver 2)
tablatura
Black Dog (ver 3)
tablatura
Black Dog (ver 4)
tablatura
Black Dog
bajo
Black Dog
video guitarra
Black Dog (ver 2)
video guitarra
Descubre más canciones de Led Zeppelin