Black Dog, Led Zeppelin (bajo)

Autor: xxblackxpinkxx | 22335 visualizaciones

                    "BLACK DOG", Led Zeppelin
-------------------------------------------------------------------------------
·Transcripto por: Sebastián Ara.
·Bs. As., Argent., 2009
·Email MSN: playing.the.angel_@hotmail.com
·Sí, sacado de oído.
_____________________________________
+Álbum: "Led Zeppelin IV" (1971)
+Afinación: EADGBe Standard
+Ritmo: 4/4
+Dificultad: Intermedia/Avanzada
_____________________________________
*Nota: Si recién empizan a tocar el bajo, no les sugiero esto por ahora. También tengan en cuenta que por mucho que sepan
tocar guitarra eléctrica, la técnica no es la misma para tocar
el bajo.

INTRO/RIFF PRINCIPAL:
G|-----------5----7h9-5h7p5----5-----------------------
D|---5-6-7-----7------------7-7---5h7-7----------------
A|-7-------7----------------------------5-7-5---0-(0)!-
E|--------------------------------------------8--------

Después están también los riffs largos, que hacen primero el tab de arriba, y luego esto:
-----------------------------------
-----------------------5-----------
---------5-h6----7--------7-----5--
--5---7-------------7--------7-----

------------------------------------------------------------------
-----------5----------------------5-------------------------5--6--
--6--7--------7-------5--6--7--------7-------5--6--7--5--7--------
--------7--------7-------------7----------7-----------------------

                                                                              
--------5-----7--9-----5--7--5--------5------------------------------------
--7--------7--------------------7--7-----7----5--7--7----------------------
-----7-------------------------------------------------5--7--3----5--------
---------------------------------------------------------------------5--5--

CORO:
----------------------|-----------------
----------------------|-----------------
----------------------|--3--------------
--5----5----5----5----|-------5----5----


INTERLUDIO:
-------------------------------|----------------------
-------------------------------|----------------------
--------------------x--3-------|--------------7----5--
--5--3--5--3h-5--3----------3--|--5--3--5--3---------


FINAL:
-------------------------------|----------------------
-------------------------------|----------------------
--------------------x--3-------|--------------7----5--
--5--3--5--3h-5--3----------3--|--5--3--5--3---------

Letras:
"Hey, hey, mama, said the way you move,
Gonna make you sweat, gonna make you groove.
Ah, ah, child, way you shake that thing,
Gonna make you burn, gonna make you sting.
Hey, hey, baby, when you walk that way,
Watch your HEARTACHE drip, can't keep away.

Oh yeah, oh yeah, oh, oh, oh
Oh yeah, oh yeah, oh, oh, oh

I gotta roll, can't stand still,
Got a flamin' heart, can't get my fill,
Eyes that shine burning red,
Dreams of you all through my head.
Ah ah ah ah ah ah ah ah ah ah ah ah ah...

Hey baby, oh baby, pretty baby,
Tell me what you do me now.
Hey baby, oh baby, pretty baby,
Tell me what u do me now

Didn't take too long b'fore I found out
What people mean by down and out.
Spent my money, took my car,
Started tellin' her friends she' goin' be a star.
I don't know, but I've been told
A Big legged woman ain't got no soul


Oh yeah, oh yeah, oh, oh, ah
Oh yeah, oh yeah, oh, oh, ah

All I ask for, when I pray,
Steady rollin' of woman gonna come my way.
need a woman gonna hold my hand
tell me no lies, makes me a happy man.

Ah ah ah ah ah ah ah ah ah ah ah ah ah...

Ahhhhhh!

Ooooh-ahhhh"

Comentarios del colaborador: Uff listo

Calificar esta versión:
Aviso: Este fichero es trabajo propio de su transcriptor y representa su interpretación personal de la canción. El material contenido en esta página es para exclusivo uso privado, por lo que se prohibe su reproducción o retransmisión, así como su uso para fines comerciales.
Más versiones de Black Dog, Led Zeppelin
Black Dog
tablatura
Black Dog (ver 2)
tablatura
Black Dog (ver 3)
tablatura
Black Dog (ver 4)
tablatura
Black Dog
bajo
Black Dog
video guitarra
Black Dog (ver 2)
video guitarra
Descubre más canciones de Led Zeppelin