Black Dog, Led Zeppelin (tablatura) (ver 3)

Autor: pichuu | 22578 visualizaciones

este se repite 3 vecess
----------------------------------------------------------------
--------------------5-------------------------------------------
-----------5h------7---5/7-5-----5---------------------------------5-6-7-----7--------------7-7----7-5-7-7--------------2-------
-7-------7---------------------------------5-7-5---5----0-------
-------------------------------------------------8------0-------
                                                           
------------------/----------------/--------------------
------------------/----------------/--------------------
------------------/----------------/--------------------
------------5-----/-----------5----/-------------------
----5-6-7-----7---/---5-6-7-----7--/----5-6-7----------
--7-------7-------/--7------7------/--7----------------

donde termina con el siete en la quinta cuerda ahi seguido va la primera parte....  aguante AC/DC.,,,.,.
Calificar esta versión:
Aviso: Este fichero es trabajo propio de su transcriptor y representa su interpretación personal de la canción. El material contenido en esta página es para exclusivo uso privado, por lo que se prohibe su reproducción o retransmisión, así como su uso para fines comerciales.
Más versiones de Black Dog, Led Zeppelin
Black Dog
tablatura
Black Dog (ver 2)
tablatura
Black Dog (ver 3)
tablatura
Black Dog (ver 4)
tablatura
Black Dog
bajo
Black Dog
video guitarra
Black Dog (ver 2)
video guitarra
Descubre más canciones de Led Zeppelin