Black Dog, Led Zeppelin (tablatura) (ver 2)

Autor: carman538 | 39611 visualizaciones

Intro        
e|-------------------------------------------------------|-------------------|
B|-----------------5-------------------------------------|-------------------|
G|-----------5---7----5h7p5-----5------------------------|-------------------|
D|---5-6-7-----7------------7-7---7---5-7-7------------2-|-----------5-------|
A|-7-------7--------------------------------5-7p5---5--0-|---5-6-7----7------|
E|------------------------------------------------8------|-7-------7---------|
   Riff 2

e|---------------------------------------------------------------------------|
B|----------------------------------------------------------5----------------|
G|----------------------------------------------------5---7---5h7p5-----5----|
D|-----------5--------------5------------------5-6-7----7-----------7-7---7--|
A|---5-6-7-----7----5-6-7-----7-----5-6-7--5-7------7------------------------|
E|-7-------7------7-------7-------7------------------------------------------|


e|---------------------|-----------------------------------------------------|
B|---------------------|-----------------------------------------------------|
G|---------------------|-----------------------------------------------------|
D|-5-7-7-------------2-|-----------------------------------------------------|
A|-------5-7p5---5---0-|-----------------------------------------------------|
E|-------------8-------|-----------------------------------------------------|
Solo  ( Play this whole bar twice )
  [        x3            ]
e|-----------------------|---------------------------------------------------|
B|-----------------------|-------3-------------------------------------------|
G|----------------------2|----5b---5-4-2---2/4-------------------------------|
D|-----------------------|---------------4-----------------------------------|
A|----------2---2---2/4--|---------------------------------------------------|
E|-2-5-2-5----5---5------|---------------------------------------------------|


La Original...

Comentarios del colaborador: http://tabs.guitarworld.com/tabs/show/3539/black-dog

Calificar esta versión:
Aviso: Este fichero es trabajo propio de su transcriptor y representa su interpretación personal de la canción. El material contenido en esta página es para exclusivo uso privado, por lo que se prohibe su reproducción o retransmisión, así como su uso para fines comerciales.
Más versiones de Black Dog, Led Zeppelin
Black Dog
tablatura
Black Dog (ver 2)
tablatura
Black Dog (ver 3)
tablatura
Black Dog (ver 4)
tablatura
Black Dog
bajo
Black Dog
video guitarra
Black Dog (ver 2)
video guitarra
Descubre más canciones de Led Zeppelin