Tornasol, La Gusana Ciega (tablatura) (ver 3)

Autor: Anónimo | 25030 visualizaciones

Esta canción es muy fácil pero se necesitan dos guitarras 
al mismo tiempo tocando, y es la unica y verdadera

u= rasgueo hacia arriba
d= rasgueo hacia abajo

INTRO:
    A           E           D         E            A 

  D D D  u  D u D u D u  D D D  u  D u D u D u  D D D  u  
                       
e--0-0-0--0--0-0-0-0-0-0--2-2-2--0--0-0-0-0-0-0--0-0-0--0--------------
B--3-3-3--0--0-0-2-0-0-0--3-3-3--0--0-0-2-0-0-0--3-3-3--0--------------
G--3-3-3--0--1-1-1-1-1-1--2-2-2--0--1-1-1-1-1-1--3-3-3--0--------------
D--3-3-3--0--2-2-2-2-2-2---------0--2-2-2-2-2-2--3-3-3--0--------------
A--0-0-0--0--2-2-2-2-2-2---------0--2-2-2-2-2-2--0-0-0--0--------------
E--0-0-0--0--0-0-0-0-0-0---------0--0-0-0-0-0-0--0-0-0--0--------------

        E          D        E     E     E

    D u D u D u  D D D  u  D u   D D   D D  

----0-0-0-0-0-0--2-2-2--0--0-0---0-0---0-0--------------------
----0-0-2-0-0-0--3-3-3--0--0-0---0-0---0-0--------------------
----1-1-1-1-1-1--2-2-2--0--1-1---1-1---1-1--------------------
----2-2-2-2-2-2---------0--2-2---2-2---2-2--------------------
----2-2-2-2-2-2---------0--2-2---2-2---2-2--------------------
----0-0-0-0-0-0---------0--0-0---0-0---0-0--------------------

INTERLUDIO:
Bueno tengo dos versiones de este interludio  escojan el que quieran 
y se oye igual.


e-----------------------------------------------------------
B------------5------------5-------------5-----------------5-
G------4-6h7--------4-6h7---------4-6h7------4-6h7--4-6h7---  
D-7-7-----------6-6-----------4-4---------------------------
A-----------------------------------------------------------
E-----------------------------------------------------------

( esto se toca poniendo media cejilla en el traste 4 y el dedo uno y 
y con el dedo dos pisando el traste 5 y ya después haciendo el resto con 
los demás dedos.

Aquí esta la otra versión

e-------------0-------------0-------------0---------0---------0---
B-------0h2h3---------0h2h3--------0h2h3------0h2h3------0h2h3----
G---2-2-----------1-1---------------------------------------------
D----------------------------------------4-4----------------------
A-----------------------------------------------------------------
E-----------------------------------------------------------------

( esto ya solo se toca como se ve) 






En casi toda la canción se hace un solo tipo de rasgueo, 
es el rasgueo mas común, y para los que no lo saben hacer

   D D  u u  D   u

e--0-0--0-0--0---0----
B--3-3--3-3--3---0----   no olviden tocar rápido las cuerdas
G--3-3--3-3--3---0----    sueltas antes de cambiar de acorde
D--3-3--3-3--3---0----
A--0-0--0-0--0---0----
E--0-0--0-0--0---0----



PRIMER VERSO PRIMERA GUITARRA

A       E    D        E             A
Estamos esperando tu cambio de estación,
       E      D          E         A
tu visión de lluvia tu nueva confusión,
         E      D               E        A
tal vez no seré yo quien pueda descifrarte.
  

Interludio


SEGUNDO VERSO PRIMERA GUITARRA

A      E      D       E             A
Tu disfraz de niña esconde tu misión,
      E      D          E          A
luego te descubres, tormenta de pasión,
         E        D              E         A
tal vez hoy seré yo quien pueda descifrarte.

   
Segundo verso segunda guitarra

No se hace nada hasta: tal vez hoy...
e-----------------------------------------------------
B---10-9/14-----10-9----------------------------------
G-----------------------------------------------------
D-----------------------------------------------------
A-----------------------------------------------------
E-----------------------------------------------------







Coro:

(Mismo rasgueo pero mas rápido)

1era guitarra:

           E        D            E        A
Vuelves a ser, mis sueños mi dulce sirena

           E        D            E            A
vuelves a ser, el sol que quema las estrellas

           E        D            E          A 
los girasoles pasan horas sin poder besarte

            E      D            E        A
vuelves a ser el universo de repente


2da guitarra durante el coro:


vuelves a ser , mis sueños mi dulce sirena

e---10--10-9--7-5------------------------------
B----------------------------------------------
G---------------------------------------------- ( AL FINAL DE  SIRENA)
D----------------------------------------------
A----------------------------------------------
E----------------------------------------------


vuelves a ser, el sol que quema las estrellas

e---10--10-9--7-5------------------------------
B----------------------------------------------
G---------------------------------------------- ( AL FINAL DE ESTRELLAS)
D----------------------------------------------
A----------------------------------------------
E----------------------------------------------


los girasoles pasan horas sin poder besarte

vuelves a ser el universo de repente

e-------0----------0--------0------------------
B-0h1h2------0h1h2----0h1h2--------------------
G---------------------------------------------- ( SE REPITE  VARIAS
D----------------------------------------------     VECES)
A----------------------------------------------
E----------------------------------------------


Interludio



Cada ves que cambian tus sueños de color

       E       D         E        A
luces tan distinta, tu piel es de tornasol

      E        D            E        A
tu razón, es una fusión interminable



 CORO            E        D            E        A
Vuelves a ser, mis sueños mi dulce sirena

           E        D            E            A
vuelves a ser, el sol que quema las estrellas

           E        D            E          A 
los girasoles pasan horas sin poder besarte

            E      D            E        A
vuelves a ser el universo de repente




                 D         A
no creo que puedas saber, 

        D                      A
lo que se siente caer del parasol,  

       E         D
al sueño intermitente

 E            D            A
nena luz, a fondo de tu esfera

   E        D            A    -SILENCIO-
donde todo gira y luego lentamente



CORO FINAL

A          E        D            E        A
Vuelves a ser, mis sueños mi dulce sirena

           E        D            E            A
vuelves a ser, el sol que quema las estrellas

           E        D            E          A 
los girasoles pasan horas sin poder besarte

            E      D            E        A
vuelves a ser el universo de repente



-----------------------------------------

dudas comentarios?? superever1@hotmail.com
Calificar esta versión:
Aviso: Este fichero es trabajo propio de su transcriptor y representa su interpretación personal de la canción. El material contenido en esta página es para exclusivo uso privado, por lo que se prohibe su reproducción o retransmisión, así como su uso para fines comerciales.
Más versiones de Tornasol, La Gusana Ciega
Tornasol
acordes
Tornasol (ver 2)
acordes
Tornasol
tablatura
Tornasol (ver 2)
tablatura
Tornasol (ver 3)
tablatura
Tornasol
bajo
Tornasol (ver 2)
bajo
Tornasol
bateria
Tornasol (ver 2)
bateria
Descubre más canciones de La Gusana Ciega