Tornasol, La Gusana Ciega (bajo) (ver 2)

Autor: Anónimo | 22760 visualizaciones

Solamente falta un arreglo a medio verso que no saque,
lo demás me parece está casi perfecto. Gracias por sus
comentarios y sugerencias. El tiempo es fácil, solo
escuchen la canción.


Introducción (0:12):
G|------------------------------------------------------------|
D|------------------7-----------------------------------------|
A|--------------7/9---9-7---7--7---5---5--5---7--7-7--7-5--5--|
E|-5---5----5-------------------------------------------------|

G|-------------------------------------------------------------|
D|-------------7--------------9---------------7/9--9-11--11-11-|
A|--------7/9---9-7---7--9/11---11-5--5--5---------------------|
E|-5---5-------------------------------------------------------|


Verso:
G|----------------------------------------------------|
D|----------------------------------------------------| (x2)
A|-----------7--x-7-----5----x-5------7--7-7--7-5--5--| /
E|-5---5----------------------------------------------|/

G|----------------------------------------------------|
D|-7---7----------------------------------------------|
A|-----------7--x-7------5----x-5-----7--7-7--7-5--5--|
E|----------------------------------------------------|


Break (Intro):
G|---------------------------------------------------------|
D|------------7--------------------------------------------|
A|--------7/9---9-7---7--7---5------5--5---7--7-7--7-5--5--|
E|-5---5---------------------------------------------------|

G|------------------------------------------------------------|
D|------------7---------------9-------------------------------|
A|--------7/9---9-7---7--9/11---11-5------5--5---7--7-7--7-5--|
E|-5---5------------------------------------------------------|


Verso:
G|------------------------------------------------------|
D|------------------------------------------------------| (x2)
A|-----------7--x-7------5----x-5------7--7-7--7-5--5---| /
E|-5---5------------------------------------------------|/

G|-----------------------------------------------------|
D|-7---7-----------------------------------------------|
A|-----------7--x-7------5----x-5------7--7-7--7-5--5--|
E|-----------------------------------------------------|


Coro:
G|----------------------------------------------------------------|
D|----------------------------------------------------------------|
A|-----------------------------------------------/4-4-4-2--2-4-2--|
E|-5--5-5-5-5-5-5-0--0-0-0-0-0-0-2--0-2--2-2-2-2------------------|

G|----------------------------------------------------------------|
D|----------------------------------------------------------------|
A|----------------------------------------------------------------|
E|-5--5-5-5-5-5-5-0--0-0-0-0-0-0-2--0-2--2-2-2-2-0-0-0-0-0-0-2-0--|

G|----------------------------------------------------------------|
D|----------------------------------------------------------------|
A|-----------------------------------------------/4-4-4-2--2-4-2--|
E|-5--5-5-5-5-5-5-0--0-0-0-0-0-0-2--0-2--2-2-2-2------------------|

G|-----------------------------------------------------------|
D|-----------------------------------------------------------|
A|-----------------------------------------------------------|
E|-5--5-5-5-5-5-5-0--0-0-0-0-0-0-2---0-2--2-2-2-0--0-0--0-0--|



Break (Intro):
G|----------------------------------------------------------------|
D|------------7----------------9----------------------------------|
A|-------7s-9---9-7---7--9s-11---11-5------5--5---7--7-7--7-5--5--|
E|-5--5-----------------------------------------------------------|

G|-------------------------------------------------------------|
D|------------7----------------------------7s-9--9-11--11-11---|
A|-------7s-9---9-7---7--7---5------5--5-----------------------|
E|-5--5--------------------------------------------------------|


Verso:
G|-----------------------------------------------------|
D|-----------------------------------------------------| (x2)
A|-----------7--x-7------5----x-5------7--7-7--7-5--5--| /
E|-5--5------------------------------------------------|/

G|-----------------------------------------------------|
D|-7--7------------------------------------------------|
A|-----------7--x-7------5----x-5------7--7-7--7-5--5--|
E|-----------------------------------------------------|


Coro:
G|----------------------------------------------------------------|
D|----------------------------------------------------------------|
A|-----------------------------------------------/4-4-4-2--2-4-2--|
E|-5--5-5-5-5-5-5-0--0-0-0-0-0-0-2--0-2--2-2-2-2------------------|


G|-----------------------------------------------------------------|
D|-----------------------------------------------------------------|
A|-----------------------------------------------------------------|
E|-5--5-5-5-5-5-5-0--0-0-0-0-0-0-2---0-2--2-2-2-2-0-0-0-0-0-0-2-0--|


G|----------------------------------------------------------------|
D|----------------------------------------------------------------|
A|-----------------------------------------------/4-4-4-2--2-4-2--|
E|-5--5-5-5-5-5-5-0--0-0-0-0-0-0-2--0-2--2-2-2-2------------------|


G|---------------------------------------------------------------|
D|---------------------------------------------------------------|
A|---------------------------------------------------------------|
E|-5--5-5-5-5-5-5-0--0-0-0-0-0-0-2--0-2--2-2-2-2-0--0-0-0-0-0-0--|


Puente (No creo que puedas saber...):
G|----------------------------------------|
D|----------------------------------------|
A|----------------5~------------------5~--|
E|-5--5-5-5-5-5-5------5--5-5-5-5-5-5-----|

(...al sueño intermitente...)
G|-------------------------------|
D|-------------------------------| (x3)
A|-------------------------------| /
E|-2-0-2--2-2-2-5--5-5-0--0-0-0--|/

G|---------------------------------------------------|
D|---------------------------------------------------|
A|----------------5-5-5-5-5-5-5-5-5-5-5-5-5-5-5-5-5~-|
E|-2-0-2--2-2-2-2------------------------------------|


Coro:
G|----------------------------------------------------------------|
D|----------------------------------------------------------------|
A|-----------------------------------------------/4-4-4-2--2-4-2--|
E|-5--5-5-5-5-5-5-0--0-0-0-0-0-0-2--0-2--2-2-2-2------------------|

G|----------------------------------------------------------------|
D|----------------------------------------------------------------|
A|----------------------------------------------------------------|
E|-5--5-5-5-5-5-5-0--0-0-0-0-0-0-2--0-2--2-2-2-2-0-0-0-0-0-0-2-0--|

G|----------------------------------------------------------------|
D|----------------------------------------------------------------|
A|-----------------------------------------------/4-4-4-2--2-4-2--|
E|-5--5-5-5-5-5-5-0--0-0-0-0-0-0-2--0-2--2-2-2-2------------------|

G|-----------------------------------------------------------|
D|-----------------------------------------------------------|
A|-----------------------------------------------------------|
E|-5--5-5-5-5-5-5-0--0-0-0-0-0-0-2---0-2--2-2-2-0--0-0--0-0--|



Outro:
G|------------------------------------------------------------|
D|------------------7-----------------------------------------|
A|--------------7/9---9-7---7--7---5---5--5---7--7-7--7-5--5--|
E|-5---5----5-------------------------------------------------|

G|--------------------------------------------------------|
D|-------------7--------------9---------------------------|
A|--------7/9---9-7---7--9/11---11-5--5--5---0--0-0--0-0--|
E|-5---5--------------------------------------------------|

G|-----|
D|-----|
A|-----|
E|--5--|
Calificar esta versión:
Aviso: Este fichero es trabajo propio de su transcriptor y representa su interpretación personal de la canción. El material contenido en esta página es para exclusivo uso privado, por lo que se prohibe su reproducción o retransmisión, así como su uso para fines comerciales.
Más versiones de Tornasol, La Gusana Ciega
Tornasol
acordes
Tornasol (ver 2)
acordes
Tornasol
tablatura
Tornasol (ver 2)
tablatura
Tornasol (ver 3)
tablatura
Tornasol
bajo
Tornasol (ver 2)
bajo
Tornasol
bateria
Tornasol (ver 2)
bateria
Descubre más canciones de La Gusana Ciega