Tornasol, La Gusana Ciega (bajo)

Autor: Anónimo | 37708 visualizaciones

Intro de guitarras

intro con bajo y bateria
G------------------------------------------------------
D------------------------------------------------------
A----------4h5po4------------5~-5~------7-7---5-7-5---
E-5~---5~---------0~---0-5-7----------------7-------7-

G-----------------------------------------
D-----------------------------------------
A----------4h5po4--------4h5po4--5~-5---7/-
E---5~-5~----------0~-0-----------------------

verso 1:

Estamos esperando...
G----------------------------------
D---------------------------------
A-------------5-5-5-7-7-7--------          X 4
E-5-5-5-0-0-0--------------------

Se repite el intro.

verso 2:

Tu disfras de niña...
G----------------------------------
D---------------------------------
A-------------5-5-5-7-7-7--------          X 4
E-5-5-5-0-0-0--------------------

como por la tercera vez hace esto:
G--7h9h7~-----9h11-9-------------------------
D--------------------11-9-------66-99-6--------
A-------------------------77-99-------
E--------------------------------

Coro:

Vuelves a ser...
G--------------------------------------------
D---------------------------------------------        X4
A----------------------5---5~--77--5-7-5-------
E-55555555--00000000-----5--------7------7--------


Se repite lo de el principio

Verso 2.

Coro.


Puente:
No quiero que vuelvas a....
G-------------
D-------------     X2
A---------5~--
E---5555------
           Al sueño intermitente....
G--------------------
D--------------------
A----------5555--------------  X3
E--2-0-2~--------5555-----------

          Donde todo gira y luego...

G-------------------------
D------------------------
A---------55555555555555-7~------
E-2-0-2~--------------------

coro.

el final es como el principio y termina en La.
Calificar esta versión:
Aviso: Este fichero es trabajo propio de su transcriptor y representa su interpretación personal de la canción. El material contenido en esta página es para exclusivo uso privado, por lo que se prohibe su reproducción o retransmisión, así como su uso para fines comerciales.
Más versiones de Tornasol, La Gusana Ciega
Tornasol
acordes
Tornasol (ver 2)
acordes
Tornasol
tablatura
Tornasol (ver 2)
tablatura
Tornasol (ver 3)
tablatura
Tornasol
bajo
Tornasol (ver 2)
bajo
Tornasol
bateria
Tornasol (ver 2)
bateria
Descubre más canciones de La Gusana Ciega