Tornasol, La Gusana Ciega (tablatura) (ver 2)

Autor: Anónimo | 39476 visualizaciones

INTRO
   A         E         D         E
e|-----------------------------------------|
B|-2-2-2-2-0-0-0-2-0-0-3-3-3-3-3-0-0-2-0-0-|
G|-2-2-2-2-2-1-1-1-1-1-2-2-2-2-2-1-1-1-1-1-|
D|-2-2-2-2-2-2-2-2-2-2-0-0-0-0-0-2-2-2-2-2-| x2
A|-0-0-0-0-0-2-2-2-2-2-0-0-0-0-0-2-2-2-2-0-|
E|-0-0-0-0-0-0-0-0-0-0-0-0-0-0-0-0-0-0-0-0-|

  A            E          D           E
e|------------------------------------------------------|
B|-------2-3-5-------2-3-5-------2-3-5------2-3-5-2-3-5-|
G|-2-2-4-------1-2-4------2-2-4-------1-2-4-------------|
D|------------------------------------------------------|  x2
A|------------------------------------------------------|
E|------------------------------------------------------|

A       E     D   E
Estamos esperando tu cambio de estación
A       E      D       E
tu visión de lluvia, tu nueva confusión
A       E          D              E
tal vez no seré yo quien pueda descifrarte

  A            E          D           E
e|-----------------------------------------------------|
B|-------2-3-5------2-3-5-------2-3-5------2-3-5-2-3-5-|
G|-2-2-4-------1-2-4------2-2-4-------1-2-4------------|
D|-----------------------------------------------------|  x2
A|-----------------------------------------------------|
E|-----------------------------------------------------|

      A       E     D     E
      Tu disfraz de niña esconde tu misión
      A     E       D     E
      luego te descubres, tormenta de pasión
      A       E        D              E
      tal vez hoy seré yo quien pueda descifrarte.
e|----------------------------------------------
B|-----10---------12----------10----------10----
G|-4/6--------7/9---------5/7---------7/9-------


   A         E        D              E
   Vuelves a seer mis sueños mi dulce sirena
e|-0---------0--------2------------10-10-10-9-7--
B|-2---------0--------3--------------------------
G|-2---------1--------2--------------------------
D|-2---------2--------0--------------------------
A|-0---------2--------0--------------------------
E|-0---------0--------0--------------------------

   A         E       D             E
   vuelves a ser el sol que quema las estrellas
e|-0---------0-------2--------------10-10-10-9-7-
B|-2---------0-------3---------------------------
G|-2---------1-------2---------------------------
D|-2---------2-------0---------------------------
A|-0---------2-------0---------------------------
E|-0---------0-------0---------------------------

  A       E           D           E
  los girasoles pasan horas sin poder besarte y
e|-------5-------------------5--------------------
B|-----2----------2-5------2-----------2-3-5-3-2--
G|-2-4------1-2-4------2-4-------1-2-4------------
D|------------------------------------------------
A|------------------------------------------------
E|------------------------------------------------
  A        E      D          E
  vueves a ser el universo de repente
e|-------5-------------------5--------------------
B|-----2----------2-5------2-----------2-3-5-3-2--
G|-2-4------1-2-4------2-4-------1-2-4------------
D|------------------------------------------------
A|------------------------------------------------
E|------------------------------------------------

  A            E          D           E
e|------------------------------------------------------|
B|-------2-3-5-------2-3-5-------2-3-5------2-3-5-2-3-5-|
G|-2-2-4-------1-2-4------2-2-4-------1-2-4-------------|
D|------------------------------------------------------| x2
A|------------------------------------------------------|
E|------------------------------------------------------|

     A    E        D           E
     Cada veez que cambian tus sueños de color,
     A       E     D         E
     luces tan distinta tu piel es tornasol,
     A       E     D            E
     tu razón es una función interminable.
e|----------------------------------------------
B|-----10---------12----------10----------10----
G|-4/6--------7/9---------5/7---------7/9-------

   A         E        D              E
   Vuelves a seer mis sueños mi dulce sirena
e|-0---------0--------2--------------10-10-10-9-7-
B|-2---------0--------3---------------------------
G|-2---------1--------2---------------------------
D|-2---------2--------0---------------------------
A|-0---------2--------0---------------------------
E|-0---------0--------0---------------------------

   A         E       D             E
   vuelves a ser el sol que quema las estrellas
e|-0---------0-------2--------------10-10-10-9-7-
B|-2---------0-------3---------------------------
G|-2---------1-------2---------------------------
D|-2---------2-------0---------------------------
A|-0---------2-------0---------------------------
E|-0---------0-------0---------------------------

  A       E           D           E
  los girasoles pasan horas sin poder besarte
e|-------5-------------------5--------------------
B|-----2----------2-5------2-----------2-3-5-3-2--
G|-2-4------1-2-4------2-4-------1-2-4------------
D|------------------------------------------------
A|------------------------------------------------
E|------------------------------------------------
  A        E      D          E
  vueves a ser el universo de repente
e|-------5-------------------5--------------------
B|-----2----------2-5------2-----------2-3-5-3-2--
G|-2-4------1-2-4------2-4-------1-2-4------------
D|------------------------------------------------
A|------------------------------------------------
E|------------------------------------------------

A           D
No creo que puedas saber
A          D
lo que se siente caer
         F#m
del parasol
    D    E            F#m  D E
al sueño intermitente
F#m           D     E       F#m
de la luz al fondo de tu esfera
D
donde todo gira y luego
E (pausa)
Lentamente…

A         E        D              E
   Vuelves a seer mis sueños mi dulce sirena
e|-0-------0--------2--------------10-10-10-9-7-
B|-2-------0--------3---------------------------
G|-2-------1--------2---------------------------
D|-2-------2--------0---------------------------
A|-0-------2--------0---------------------------
E|-0-------0--------0---------------------------

   A         E       D             E
   vuelves a ser el sol que quema las estrellas
e|-0---------0-------2--------------10-10-10-9-7-
B|-2---------0-------3---------------------------
G|-2---------1-------2---------------------------
D|-2---------2-------0---------------------------
A|-0---------2-------0---------------------------
E|-0---------0-------0---------------------------

  A       E           D           E
  los girasoles pasan horas sin poder besarte
e|-------5-------------------5--------------------
B|-----2----------2-5------2-----------2-3-5-3-2--
G|-2-4------1-2-4------2-4-------1-2-4------------
D|------------------------------------------------
A|------------------------------------------------
E|------------------------------------------------
  A        E      D          E
  vueves a ser el universo de repente
e|-------5-------------------5--------------------
B|-----2----------2-5------2-----------2-3-5-3-2--
G|-2-4------1-2-4------2-4-------1-2-4------------
D|------------------------------------------------
A|------------------------------------------------
E|------------------------------------------------

  A            E          D           E
e|------------------------------------------------------|
B|-------2-3-5-------2-3-5-------2-3-5------2-3-5-2-3-5-|
G|-2-2-4-------1-2-4------2-2-4-------1-2-4-------------|
D|------------------------------------------------------| x2
A|------------------------------------------------------|
E|------------------------------------------------------|

Ps aki les dejo sta kancion que esta de poka madre.
Enviado por Daniel Mendoza Griz
Calificar esta versión:
Aviso: Este fichero es trabajo propio de su transcriptor y representa su interpretación personal de la canción. El material contenido en esta página es para exclusivo uso privado, por lo que se prohibe su reproducción o retransmisión, así como su uso para fines comerciales.
Más versiones de Tornasol, La Gusana Ciega
Tornasol
acordes
Tornasol (ver 2)
acordes
Tornasol
tablatura
Tornasol (ver 2)
tablatura
Tornasol (ver 3)
tablatura
Tornasol
bajo
Tornasol (ver 2)
bajo
Tornasol
bateria
Tornasol (ver 2)
bateria
Descubre más canciones de La Gusana Ciega