Dust In The Wind, Kansas (tablatura) (ver 6)

Autor: zpawn | 29686 visualizaciones

Que hay, espero y la rola les guste, segun yo va mas o menos asi: 

e/-----------|-----------|-----------|--------------|
B/-1-----1---|-0-----0---|-3-----3---|-1-----1------|
G/---------0-|---------0-|---------0-|---------0----|
D/-----2-----|-----2-----|-----2-----|-----2--------|
A/-3-3-------|-3-3-------|-3-3-------|-3-3----------|
E/-----------|-----------|-----------|--------------|

e/-----------|-----------|-----------|--------------|
B/-1-----1---|-0-----0---|-3-----3---|-1-----1------|
G/---------2-|---------2-|---------2-|---------2----|
D/-----2-----|-----2-----|-----2-----|-----2--------|
A/-0-0-------|-0-0-------|-0-0-------|-0-0----------|
E/-----------|-----------|-----------|--------------|

e/-----------|-----------|-----------|--------------|
B/-1-----1---|-0-----0---|-3-----3---|-1-----1------|
G/---------0-|---------0-|---------0-|---------0----|
D/-----2-----|-----2-----|-----2-----|-----2--------|
A/-3-3-------|-3-3-------|-3-3-------|-3-3----------|
E/-----------|-----------|-----------|--------------|

e/-----------|-----------|-----------|--------------|
B/-1-----1---|-0-----0---|-3-----3---|-1------------|
G/---------2-|---------2-|---------2-|--------------|
D/-----2-----|-----2-----|-----2-----|--------------|
A/-0-0-------|-0-0-------|-0-0-------|-0----0--3----|
E/-----------|-----------|-----------|--------------|

ojala les agrade como a mi, el chiste es darle el ritmo.

Comentarios del colaborador: Cualquier duda haganmelo saber, les dejo mi correo: spawn_mustia@hotmail.es

Calificar esta versión:
Aviso: Este fichero es trabajo propio de su transcriptor y representa su interpretación personal de la canción. El material contenido en esta página es para exclusivo uso privado, por lo que se prohibe su reproducción o retransmisión, así como su uso para fines comerciales.
Más versiones de Dust In The Wind, Kansas
Dust In The Wind
acordes
Dust In The Wind (ver 2)
acordes
Dust In The Wind (ver 3)
acordes
Dust In The Wind
tablatura
Dust In The Wind (ver 2)
tablatura
Dust In The Wind (ver 3)
tablatura
Dust In The Wind (ver 4)
tablatura
Dust In The Wind (ver 5)
tablatura
Dust In The Wind (ver 6)
tablatura
Descubre más canciones de Kansas