Dust In The Wind, Kansas (tablatura) (ver 3)

Autor: AdrianaxD | 37036 visualizaciones

4---------10-9-10----------------*----7----------------
3--9---7-----------7-------------*5-4---4-5------------
2---------------------8-10-------*----------6-8--------
1--------------------------7-8-10*--------------5-7-8--


4-------------------------------*-----10-9-10----------------
3--------------------------9-7-9*9--7---------7--------------
2----------------10-8-10-8------*----------------8-10--------
1--8-7-5---7-8-7----------------*----------------------7-8-10



4-------7-----------------*----------------------------------
3--5-4-----4-5------------*----------------------------------
2---------------6-8-------*----------------10----------------
1--------------------5-7-8*8-7-5----7-8-7------7-8-10-0-1-3-5



4---------------------------------*---------------
3--------------------------------2*2------2-------
2----------------3----3-1-3-1-0---*---0-1----0-1-3
1--3-1-3-1-0-1-0---0--------------*---------------



4---------------------*--------------------------------------
3---------------------*-------------------------------------2
2--0-1-3-0-1-3--------*-------------------3-----3-1-3-1--0---
1---------------0--5-3*5-3--1-3-1--0-1-0-----0---------------

Comentarios del colaborador: Pues este es el solo de violín de Polvo en el Viento adaptado a guitarra espero que les guste y pues como siempre manden sus comentarios o a los que quieran agregarmee!XD ibisadriana@hotmail.com

Calificar esta versión:
Aviso: Este fichero es trabajo propio de su transcriptor y representa su interpretación personal de la canción. El material contenido en esta página es para exclusivo uso privado, por lo que se prohibe su reproducción o retransmisión, así como su uso para fines comerciales.
Más versiones de Dust In The Wind, Kansas
Dust In The Wind
acordes
Dust In The Wind (ver 2)
acordes
Dust In The Wind (ver 3)
acordes
Dust In The Wind
tablatura
Dust In The Wind (ver 2)
tablatura
Dust In The Wind (ver 3)
tablatura
Dust In The Wind (ver 4)
tablatura
Dust In The Wind (ver 5)
tablatura
Dust In The Wind (ver 6)
tablatura
Descubre más canciones de Kansas