Dust In The Wind, Kansas (tablatura) (ver 4)

Autor: guitarhero_3 | 42905 visualizaciones

Bueno, les mando lo que sería mi primera participación, la otra tab esta correcta(mismos acordes), sólo que creo que el arpegio (por lo menos en el intro), debe de sonar así:

KANSAS - DUST IN THE WIND

             
   C                C7M               C2                C                             
e:-----------------|-----------------|-----------------|-----------------|
B:-1---------1-----|-0---------0-----|-3---------0-----|-1---------1-----|
G:-------0---------|-------0---------|-------0---------|-------0-------0-|           
D:-----2-------2---|-----2-------2---|-----2-------2---|-----2-------2---|
A:-3-------------3-|-3-------------3-|-3-------------3-|-3---------------|
E:-----------------|-----------------|-----------------|-----------------|


   Am2               Am4              Am                 Am2                               
e:-----------------|-----------------|-----------------|-----------------|
B:-0---------0-----|-3---------3-----|-1---------1-----|-0---------0-----|
G:-------2---------|-------2---------|-------2---------|-------2---------|
D:-----2-------2---|-----2-------2---|-----2-------2---|-----2-------2---|           
A:-0-------------0-|-0-------------0-|-0-------------0-|-0-------------0-|
E:-----------------|-----------------|-----------------|-----------------|

Calificar esta versión:
Aviso: Este fichero es trabajo propio de su transcriptor y representa su interpretación personal de la canción. El material contenido en esta página es para exclusivo uso privado, por lo que se prohibe su reproducción o retransmisión, así como su uso para fines comerciales.
Más versiones de Dust In The Wind, Kansas
Dust In The Wind
acordes
Dust In The Wind (ver 2)
acordes
Dust In The Wind (ver 3)
acordes
Dust In The Wind
tablatura
Dust In The Wind (ver 2)
tablatura
Dust In The Wind (ver 3)
tablatura
Dust In The Wind (ver 4)
tablatura
Dust In The Wind (ver 5)
tablatura
Dust In The Wind (ver 6)
tablatura
Descubre más canciones de Kansas