Dust In The Wind, Kansas (tablatura) (ver 5)

Autor: frankok | 37402 visualizaciones

Kansas-polvo en el viento

INTRO:


    C*              C           G            Am
e|-------------|-------------|-------------|-------------|
B|-3-----3-----|-2-----2-----|-3-----3-----|-1-----1-----|
G|---0-----0---|---0-----0---|---0-----0---|---0-----0---|
D|-----2-----2-|-----2-----2-|-----0-----0-|-----2-----2-|
A|-3-----3-----|-3-----3-----|-2-----2-----|-0-----0-----|
E|-------------|-------------|-------------|-------------|

       G             Dm             Am            C
e|-------------|-------------|--------------|-------------|
B|-3-----3-----|-3-----3-----|-1------1-----|-3-----3-----|
G|---0-----0---|---2-----2---|---0------0---|---0-----0---|
D|-----0-----0-|-----0-----0-|-----2------2-|-----0-----0-|
A|-2-----2-----|-0-----0-----|-0------0-----|-2-----2-----|
E|-------------|-------------|--------------|-------------|


          G            Am          G              Dm
e|-------------|-------------|-------------|--------------|
B|-3-----3-----|-1-----1-----|-3-----3-----|-3-----3------|
G|---0-----0---|---0-----0---|---0-----0---|---2-----2----|
D|-----0-----0-|-----2-----2-|-----0-----0-|-----0-----0--|
A|-2-----2-----|-0-----0-----|-2-----2-----|-0-----0------|
E|-------------|-------------|-------------|--------------|


          G            Am         Am/G
e|-------------|-------------|----------|
B|-3-----3-----|-1-----1-----|-1-----3--|
G|---0-----0---|---0-----0---|----------|
D|-----0-----0-|-----2-----2-|----------|
A|-2-----2-----|-0-----0-----|----------|
E|-------------|-------------|-0-----2--|
                          (la parte final)

Comentarios del colaborador: bueno espero q les guste....

Calificar esta versión:
Aviso: Este fichero es trabajo propio de su transcriptor y representa su interpretación personal de la canción. El material contenido en esta página es para exclusivo uso privado, por lo que se prohibe su reproducción o retransmisión, así como su uso para fines comerciales.
Más versiones de Dust In The Wind, Kansas
Dust In The Wind
acordes
Dust In The Wind (ver 2)
acordes
Dust In The Wind (ver 3)
acordes
Dust In The Wind
tablatura
Dust In The Wind (ver 2)
tablatura
Dust In The Wind (ver 3)
tablatura
Dust In The Wind (ver 4)
tablatura
Dust In The Wind (ver 5)
tablatura
Dust In The Wind (ver 6)
tablatura
Descubre más canciones de Kansas