Como Tu, Jaguares (tablatura) (ver 3)

Autor: Anónimo | 32312 visualizaciones



Hola nuevamente, como ven este es el solo de la rola
se que es muy parecido al original que toca el vampiro.
Como se? bueno yo tengo mis medios.

Espero que lo disfruten y si me lo van a piratear por lo menos denme
credito.






e-----------------------------------------------------------
B----------3-2-5-5-4-6-7/8---7-----7/8--7-7--8--9-10--------
G-----------------------------------------------------------
D-----------------------------------------------------------
A-----2-3--5-4-7-7-6-8-9/10--9-----9/10-9-9-10-11-12--12/14-
E-3-5-------------------------------------------------------


e--------------------------------------------7b-7-7/6-7-9-10-9-7-7-7-6--
B----------------------------8-8-8-8/7-7-7-7----------------------------
G------------------------6-7--------------------------------------------
D----------------------9------------------------------------------------
A-0h9-9-9-7-5-4-5-4--9--------------------------------------------------
E-----------------------------------------------------------------------


e------------------------------------------------------------------
B-7-5/7-7-5555-----------------------------------------------------
G--------------4-6-7-7/9-9-11-11-11/12--11----9-11-12-11-9-8-9~~~~~
D-------------------------------------------9----------------------
A---------------------------------9/10---9-------------------------
E------------------------------------------------------------------




Pues eso es todo, entiendanle y van a ver que chido se oye.
saludos a mis camaradas Juan (el gato), Eddie (el sammy/broken), y a Sergio (chilango)

De su compa...                          M O I S E S

Fuente original: LaCuerda
Colaborador original: Moises Guzman [[email protected]]





Calificar esta versión:
Aviso: Este fichero es trabajo propio de su transcriptor y representa su interpretación personal de la canción. El material contenido en esta página es para exclusivo uso privado, por lo que se prohibe su reproducción o retransmisión, así como su uso para fines comerciales.
Más versiones de Como Tu, Jaguares
Como Tu
acordes
Como Tu (ver 2)
acordes
Como Tu (ver 3)
acordes
Como Tu
tablatura
Como Tu (ver 2)
tablatura
Como Tu (ver 3)
tablatura
Como Tu
bajo
Como Tu (ver 2)
bajo
Como Tu
teclado
Descubre más canciones de Jaguares