Como Tu, Jaguares (tablatura)

Autor: Anónimo | 24302 visualizaciones



El más reciente sencillo de los Jaguares
échenle ganas, a ti a esa persona especial 
q se q le gusta mucho, para ti, va por ti...

Intro  

con un poco de distor marca estas notas

---Bm-----------------------------------
e-2-----2-2--*7*-----2-------------2-----|
B-3-----3-3----*7*---3-----*7*-----3-----|
G-4-----4-4-----*7*--4----*7*-*7---4-----|
D-4-----4-4------*7*-4---*7*-------4-----|
A----------------------------------------|
E----------------------------------------|

*n* ------> son armonicos

Verso
Bm                  F#7
Hay un alma q esta herida
Bm                   F#7
q se derrama en cada vida
Bm                       F#7
q se contempla en los espejos de la carne
Bm                   F#7
y no se dobla ni se rinde


Coro

         G          A           F#7
Asi como tu u u u u amor q das la vida
         G          A           F#7
asi como tu u u u u amor q das la vida 
         G     A  Bm
asi como tu u u u u u 
         G     A  Bm
asi como tu u u u u u 


Verso
Bm                   F#7
Hay un alma q fue preñada
Bm                       F#7
sufrió el engaño de tus sueños
Bm                        F#7
anda buscando donde esconder su mortal herida
Bm                        F#7
y está esperando verte hincado y desangrando


Coro

         G          A           F#7
Asi como tu u u u u amor q quitas la vida
         G          A           F#7
asi como tu u u u u amor q quitas la vida 
         G     A  Bm
asi como tu u u u u u 
         G     A  Bm
asi como tu u u u u u 


Puente

F#m                       Bm
Y es tan fácil q te hagan daño
D                        C
ni en el último suspiro te dejas querer

amor roto o o o o o  o  o  o
e----------------------------------------|
B----------------------------------------|
G----------------------------------------|
D----------------------------------------|
A------------------------1--2------------|
E-----------------3--5-------------------|


Solo

e----------------------------------------|
B----------------------------------------|
G----4----11--11/1211---11/1211--11----|
D----------------------------------------|
A----2----9----9/109-----9/109---9-----|
E----------------------------------------|


e--------------------------------------------|
B---------------11--12---/15-----------------|
G-11--12-13-14-----------------/11--11--11-9-|
D----------------8--9----/12-----------------|
A--9--10-11-12-----------------/9----9--9--7-|
E--------------------------------------------|


e---------------------------------------7-7--|
B------------------------8-8-8-8--7-7-7------|
G-7--6/76--6--------7*9---------------------|
D----------------7*9-------------------------|
A-5--4/54--4--------------------------------|
E--------------------------------------------|

e-6*7-8-9--10---7----------------------------|
B-----------------8-8-8-7--------------------|
G-------------------------/11-11-11--9--4--6-|
D--------------------------------------------|
A--------------------------/9--9--9--7--2--4-|
E--------------------------------------------|


e--------------------------------------------|
B--------------------------------------------|
G-7--9--11--12--11/1211-11-------7-9*7------|
D-----------------------------7-9-------9-7-9|
A-5--7---9--10---9/109---9------------------|
E--------------------------------------------|


         G          A           F#7
Asi como tu u u u u amor q das la vida
         G          A           F#7
asi como tu u u u u amor q quitas la vida  
 G          A           F#7
Asi como tu u u u u amor q das la vida
         G          A           F#7
asi como tu u u u u amor q quitas la vida  
         G     A  Bm
asi como tu u u u u u 
         G     A  Bm
asi como tu u u u u u 
         G     A  Bm
asi como tu u u u u u 
         G     A  Bm
asi como tu u u u u u 



e-------7~----9-10-9*10*9--9~----------------|
B------7~------------------------------------|
G-----7~-------------------------------------|
D----9~--------------------------------------|
A---9~---------------------------------------|
E--7~----------------------------------------|

Por favor, si vana usar este archivo en algún 
lugar, avisenme, no sean ***Gandallas**** por 
no decir otra cosa.. jajaja

ya saben, dudas, sugerencias, comentarios, 
anecdotas, chistes o lo q sea a mi mail
[email protected]

Fuente original: LaCuerda
Colaborador original: Julio Durán "Gambito" [[email protected]]





Calificar esta versión:
Aviso: Este fichero es trabajo propio de su transcriptor y representa su interpretación personal de la canción. El material contenido en esta página es para exclusivo uso privado, por lo que se prohibe su reproducción o retransmisión, así como su uso para fines comerciales.
Más versiones de Como Tu, Jaguares
Como Tu
acordes
Como Tu (ver 2)
acordes
Como Tu (ver 3)
acordes
Como Tu
tablatura
Como Tu (ver 2)
tablatura
Como Tu (ver 3)
tablatura
Como Tu
bajo
Como Tu (ver 2)
bajo
Como Tu
teclado
Descubre más canciones de Jaguares