Como Tu, Jaguares (bajo) (ver 2)

Autor: Anónimo | 15513 visualizaciones



El bajo de esta rolita esta muy facil,
te recomiendo escucharla un par de veces para que agarres bien los tiempos...

 Intro...      Hay un alma... ( 1ª y 2ª estrofa )
  Bm          |Bm           F#m
G|------------|------------|-----------||
D|------------|-4s5s4---4--|-----------||
A|2-----2-2---|2------2---2|-----------||
E|--2-4-------|------------|2--2---2--2||
 *  4 veces   |         4 veces        |

  Asi como tu...
  Bm           G            A           F#m
G|------------|------------|-----------|------------|
D|----------4-|------------|-----------|--4---------| 2 veces
A|2----5------|-----5------|-----4-----|------4-----|
E|------------|3---------3-|5---------5|---------(2)|

  Asi como tuuu...
  G            A            Bm   
G|------------|------------|-----------||
D|5-5-5----5--|7-7-7----7--|-----------|| 2 veces
A|------------|------------|2-----2-2--||
E|------------|------------|--2-4------||

  Estrofa 2 – igual
  Coro 2 – igual

  Y es tan facil...
  F#m          G            D           C     
G|------------|------------|-----------|------------|
D|------------|------------|-----------|------------|
A|------------|------------|4s5-5-4s5-5|3--3-3-3s15s|
E|2-2-3-2--2-2|3--3----3--3|-----------|------------|

  Solo de guitarra...
  Bm           F#m
G|------------|------------||
D|--4---4-----|------------|| 4 veces
A|2---2---2---|------------||
E|------------|2--2--2--2--||

 Notas del final...
  Bm
G|------------------------||
D|14s16-14----------------|| Dudas, preguntas o comentarios
A|---------16b(18)p16-s-14|| escribe a:
E|------------------------|| [email protected]

Fuente original: LaCuerda
Colaborador original: Israel Sánchez [[email protected]]





Calificar esta versión:
Aviso: Este fichero es trabajo propio de su transcriptor y representa su interpretación personal de la canción. El material contenido en esta página es para exclusivo uso privado, por lo que se prohibe su reproducción o retransmisión, así como su uso para fines comerciales.
Más versiones de Como Tu, Jaguares
Como Tu
acordes
Como Tu (ver 2)
acordes
Como Tu (ver 3)
acordes
Como Tu
tablatura
Como Tu (ver 2)
tablatura
Como Tu (ver 3)
tablatura
Como Tu
bajo
Como Tu (ver 2)
bajo
Como Tu
teclado
Descubre más canciones de Jaguares