Como Tu, Jaguares (tablatura) (ver 2)

Autor: Anónimo | 24707 visualizaciones



ESTE ES EL SOLO QUE SAQUE DESDE EL 4 DE MAYO.
SE OYE MUY BIEN CON DISTORCION!

e|-----------------------------------8-8-8-8-|+
b|-------------------------------------------|+
g|-9/11-11-11-11-9-7-6-7-6--3-4-6-7----------|+
D|-------------------------------------------|+
A|-------------------------------------------|+
E|-------------------------------------------|+

e|-------7-7-7--6-7-6--7/9-9-7-6------------------------|+
b|-7-7-7-------------------------8-7--------------------|+
g|------------------------------------9/11-11-11-11-9-9-|+
D|------------------------------------------------------|+
A|------------------------------------------------------|+
E|------------------------------------------------------|+

e|--------------------------------------------------|
b|--------------------------------------------16-17-|
g|-------------------------------------16-17--------|
D|-9-11-12-14-16-17-16-17-16-16-16-17---------------|
A|--------------------------------------------------|
E|--------------------------------------------------|

Fuente original: LaCuerda
Colaborador original: Erick Silva [[email protected]]





Calificar esta versión:
Aviso: Este fichero es trabajo propio de su transcriptor y representa su interpretación personal de la canción. El material contenido en esta página es para exclusivo uso privado, por lo que se prohibe su reproducción o retransmisión, así como su uso para fines comerciales.
Más versiones de Como Tu, Jaguares
Como Tu
acordes
Como Tu (ver 2)
acordes
Como Tu (ver 3)
acordes
Como Tu
tablatura
Como Tu (ver 2)
tablatura
Como Tu (ver 3)
tablatura
Como Tu
bajo
Como Tu (ver 2)
bajo
Como Tu
teclado
Descubre más canciones de Jaguares