Devuelveme A Mi Chica, Hombres G (tablatura)

Autor: vamdinfer | 16303 visualizaciones



Devuelveme A Mi Chica 
e|-1--0--------5-4-3--1--3--0--|
B|-3--1--------5-4-3--3--3--1--|
G|-2--2--------5-4-3--2--3--2--|
D|-0--2--------7-6-5--0--5--2--|
A|----0-x6-----7-6-5-----5--0--|
E|-------------5-4-3-----3-----|

e|-1-1-x-1-1-x-1-1-x-1-1-x----|
B|-3-3-x-3-3-x-3-3-x-3-3-x----|
G|-2-2-x-2-2-x-2-2-x-2-2-x----|
D|-0-0-x-0-0-x-0-0-x-0-0-x----|
A|----------------------------|
E|----------------------------|

e|-0-0-x-0-0-x-0-0-x-0-0-x----|
B|-1-1-x-1-1-x-1-1-x-1-1-x----|
G|-2-2-x-2-2-x-2-2-x-2-2-x----|
D|-2-2-x-2-2-x-2-2-x-2-2-x----|
A|-0-0-x-0-0-x-0-0-x-0-0-x----|
E|----------------------------|

e|-1-1-x-1-1-x-1-1-x-1-1-x----|
B|-3-3-x-3-3-x-3-3-x-3-3-x----|
G|-2-2-x-2-2-x-2-2-x-2-2-x----|
D|-0-0-x-0-0-x-0-0-x-0-0-x----|
A|----------------------------|
E|----------------------------|

e|-0-0-x-0-0-x-0-0-x-5--4-----|
B|-1-1-x-1-1-x-1-1-x-5--4-----|
G|-2-2-x-2-2-x-2-2-x-5--4-----|
D|-2-2-x-2-2-x-2-2-x-7--6-----|
A|-0-0-x-0-0-x-0-0-x-7--6-----|
E|-------------------5--4-----|

e|-3-3-x-3-3-x-3-3-x-3-3-x----|
B|-3-3-x-3-3-x-3-3-x-3-3-x----|
G|-3-3-x-3-3-x-3-3-x-3-3-x----|
D|-5-5-x-5-5-x-5-5-x-5-5-x----|
A|-5-5-x-5-5-x-5-5-x-5-5-x----|
E|-3-3-x-3-3-x-3-3-x-3-3-x----|

e|-1-1-x-1-1-x-1-1-x-1-1-x----|
B|-3-3-x-3-3-x-3-3-x-3-3-x----|
G|-2-2-x-2-2-x-2-2-x-2-2-x----|
D|-0-0-x-0-0-x-0-0-x-0-0-x----|
A|----------------------------|
E|----------------------------|

e|-3-3-x-3-3-x-3-3-x-3-3-x-0-0-0-|
B|-3-3-x-3-3-x-3-3-x-3-3-x-1-1-1-|
G|-3-3-x-3-3-x-3-3-x-3-3-x-2-2-2-|
D|-5-5-x-5-5-x-5-5-x-5-5-x-2-2-2-|
A|-5-5-x-5-5-x-5-5-x-5-5-x-0-0-0-|
E|-3-3-x-3-3-x-3-3-x-3-3-x-------|

e|-1-1---1-1---1-1---1-1---1-1---1-1-|
B|-3-3---1-1---3-3---1-1---3-3---1-1-|
G|-3-3---2-2---3-3---2-2---3-3---2-2-|
D|-0-0---3-3---0-0---3-3---0-0---3-3-|
A|-1-1---0-0---1-1---0-0---1-1---0-0-|
E|-------1-1---------1-1---------1-1-|

e|-3-3---0-0-0-0-0-0-0-0-0-0-0--|
B|-0-0---2-2-2-2-2-2-2-2-2-2-2--|
G|-0-0---2-2-2-2-2-2-2-2-2-2-2--|
D|-0-0---2-2-2-2-2-2-2-2-2-2-2--|
A|-2-2---0-0-0-0-0-0-0-0-0-0-0--|
E|-3-3--------------------------|

e|-1-1---1-1---1-1---1-1---1-1---1-1-|
B|-3-3---1-1---3-3---1-1---3-3---1-1-|
G|-3-3---2-2---3-3---2-2---3-3---2-2-|
D|-0-0---3-3---0-0---3-3---0-0---3-3-|
A|-1-1---0-0---1-1---0-0---1-1---0-0-|
E|-------1-1---------1-1---------1-1-|

e|-3-3---0-0-0-0-0-0-0-0-0-0-0--|
B|-0-0---2-2-2-2-2-2-2-2-2-2-2--|
G|-0-0---2-2-2-2-2-2-2-2-2-2-2--|
D|-0-0---2-2-2-2-2-2-2-2-2-2-2--|
A|-2-2---0-0-0-0-0-0-0-0-0-0-0--|
E|-3-3--------------------------|

e|-10-----------------------------|
B|----10--------------------------|
G|-------10--12-10-12-10-12/14-14-|
D|--------------------------------|
A|--------------------------------|
E|--------------------------------|

e|-10-10-13-10-------------8/10-10-|
B|---------------------------------|
G|-------------10-12-10-10---------|
D|---------------------------------|
A|---------------------------------|
E|---------------------------------|

e|---3------3-3-x-----10-------10-10-x-|
B|-----3--------x--------10----------x-|
G|-3-----3------x--10-------10-------x-|
D|--------------x--------------------x-|
A|--------------x--------------------x-|
E|--------------x--------------------x-|

e|--3------3-3-3-------------5-6-7-10-10-10-10-10-
B|----3----------------4-5-6----------------------
G|3-----3--------3-4-5----------------------------
D|------------------------------------------------
A|------------------------------------------------
E|------------------------------------------------

e|-1-1-x-1-1-x-1-1-x-1-1-x----|
B|-3-3-x-3-3-x-3-3-x-3-3-x----|
G|-2-2-x-2-2-x-2-2-x-2-2-x----|
D|-0-0-x-0-0-x-0-0-x-0-0-x----|
A|----------------------------|
E|----------------------------|

e|-0-0-x-0-0-x-0-0-x-0-0-x----|
B|-1-1-x-1-1-x-1-1-x-1-1-x----|
G|-2-2-x-2-2-x-2-2-x-2-2-x----|
D|-2-2-x-2-2-x-2-2-x-2-2-x----|
A|-0-0-x-0-0-x-0-0-x-0-0-x----|
E|----------------------------|

e|-1-1-x-1-1-x-1-1-x-1-1-x----|
B|-3-3-x-3-3-x-3-3-x-3-3-x----|
G|-2-2-x-2-2-x-2-2-x-2-2-x----|
D|-0-0-x-0-0-x-0-0-x-0-0-x----|
A|----------------------------|
E|----------------------------|

e|-0-0-x-0-0-x-0-0-x-5--4-----|
B|-1-1-x-1-1-x-1-1-x-5--4-----|
G|-2-2-x-2-2-x-2-2-x-5--4-----|
D|-2-2-x-2-2-x-2-2-x-7--6-----|
A|-0-0-x-0-0-x-0-0-x-7--6-----|
E|-------------------5--4-----|

e|-3-3-x-3-3-x-3-3-x-3-3-x----|
B|-3-3-x-3-3-x-3-3-x-3-3-x----|
G|-3-3-x-3-3-x-3-3-x-3-3-x----|
D|-5-5-x-5-5-x-5-5-x-5-5-x----|
A|-5-5-x-5-5-x-5-5-x-5-5-x----|
E|-3-3-x-3-3-x-3-3-x-3-3-x----|

e|-1-1-x-1-1-x-1-1-x-1-1-x----|
B|-3-3-x-3-3-x-3-3-x-3-3-x----|
G|-2-2-x-2-2-x-2-2-x-2-2-x----|
D|-0-0-x-0-0-x-0-0-x-0-0-x----|
A|----------------------------|
E|----------------------------|


e|-3-3-x-3-3-x-3-3-x-3-3-x-0-0-0-|
B|-3-3-x-3-3-x-3-3-x-3-3-x-1-1-1-|
G|-3-3-x-3-3-x-3-3-x-3-3-x-2-2-2-|
D|-5-5-x-5-5-x-5-5-x-5-5-x-2-2-2-|
A|-5-5-x-5-5-x-5-5-x-5-5-x-0-0-0-|
E|-3-3-x-3-3-x-3-3-x-3-3-x-------|

e|-1-1-x-1-1-x-1-1-x-1-1-x----|
B|-3-3-x-3-3-x-3-3-x-3-3-x----|
G|-2-2-x-2-2-x-2-2-x-2-2-x----|
D|-0-0-x-0-0-x-0-0-x-0-0-x----|
A|----------------------------|
E|----------------------------|

e|-0-0-x-0-0-x-0-0-x-0-0-x----|
B|-1-1-x-1-1-x-1-1-x-1-1-x----|
G|-2-2-x-2-2-x-2-2-x-2-2-x----|
D|-2-2-x-2-2-x-2-2-x-2-2-x----|
A|-0-0-x-0-0-x-0-0-x-0-0-x----|
E|----------------------------|

e|-1-1-x-1-1-x-1-1-x-1-1-x----|
B|-3-3-x-3-3-x-3-3-x-3-3-x----|
G|-2-2-x-2-2-x-2-2-x-2-2-x----|
D|-0-0-x-0-0-x-0-0-x-0-0-x----|
A|----------------------------|
E|----------------------------|

e|-0-0-x-0-0-x-0-0-x-5--4-----|
B|-1-1-x-1-1-x-1-1-x-5--4-----|
G|-2-2-x-2-2-x-2-2-x-5--4-----|
D|-2-2-x-2-2-x-2-2-x-7--6-----|
A|-0-0-x-0-0-x-0-0-x-7--6-----|
E|-------------------5--4-----|

e|-3-3-x-3-3-x-3-3-x-3-3-x----|
B|-3-3-x-3-3-x-3-3-x-3-3-x----|
G|-3-3-x-3-3-x-3-3-x-3-3-x----|
D|-5-5-x-5-5-x-5-5-x-5-5-x----|
A|-5-5-x-5-5-x-5-5-x-5-5-x----|
E|-3-3-x-3-3-x-3-3-x-3-3-x----|

e|-1-1-x-1-1-x-1-1-x-1-1-x----|
B|-3-3-x-3-3-x-3-3-x-3-3-x----|
G|-2-2-x-2-2-x-2-2-x-2-2-x----|
D|-0-0-x-0-0-x-0-0-x-0-0-x----|
A|----------------------------|
E|----------------------------|

e|-3-3-x-3-3-x-3-3-x-3-3-x-0-0-0-|
B|-3-3-x-3-3-x-3-3-x-3-3-x-1-1-1-|
G|-3-3-x-3-3-x-3-3-x-3-3-x-2-2-2-|
D|-5-5-x-5-5-x-5-5-x-5-5-x-2-2-2-|
A|-5-5-x-5-5-x-5-5-x-5-5-x-0-0-0-|
E|-3-3-x-3-3-x-3-3-x-3-3-x-------|

e|-1-1---1-1---1-1---1-1---1-1---1-1-|
B|-3-3---1-1---3-3---1-1---3-3---1-1-|
G|-3-3---2-2---3-3---2-2---3-3---2-2-|
D|-0-0---3-3---0-0---3-3---0-0---3-3-|
A|-1-1---0-0---1-1---0-0---1-1---0-0-|
E|-------1-1---------1-1---------1-1-|





e|-3-3---0-0-0-0-0-0-0-0-0-0-0--|
B|-0-0---2-2-2-2-2-2-2-2-2-2-2--|
G|-0-0---2-2-2-2-2-2-2-2-2-2-2--|
D|-0-0---2-2-2-2-2-2-2-2-2-2-2--|
A|-2-2---0-0-0-0-0-0-0-0-0-0-0--|
E|-3-3--------------------------|

e|-1-1---1-1---1-1---1-1---1-1---1-1-|
B|-3-3---1-1---3-3---1-1---3-3---1-1-|
G|-3-3---2-2---3-3---2-2---3-3---2-2-|
D|-0-0---3-3---0-0---3-3---0-0---3-3-|
A|-1-1---0-0---1-1---0-0---1-1---0-0-|
E|-------1-1---------1-1---------1-1-|





e|-3-3---0-0-0-0-0-0-0-0-0-0-0--|
B|-0-0---2-2-2-2-2-2-2-2-2-2-2--|
G|-0-0---2-2-2-2-2-2-2-2-2-2-2--|
D|-0-0---2-2-2-2-2-2-2-2-2-2-2--|
A|-2-2---0-0-0-0-0-0-0-0-0-0-0--|
E|-3-3--------------------------|

e|-1-1---1-1---1-1---1-1---1-1---1-1-|
B|-3-3---1-1---3-3---1-1---3-3---1-1-|
G|-3-3---2-2---3-3---2-2---3-3---2-2-|
D|-0-0---3-3---0-0---3-3---0-0---3-3-|
A|-1-1---0-0---1-1---0-0---1-1---0-0-|
E|-------1-1---------1-1---------1-1-|





e|-3-3---0-0-0-0-0-0-0-0-0-0-0--|
B|-0-0---2-2-2-2-2-2-2-2-2-2-2--|
G|-0-0---2-2-2-2-2-2-2-2-2-2-2--|
D|-0-0---2-2-2-2-2-2-2-2-2-2-2--|
A|-2-2---0-0-0-0-0-0-0-0-0-0-0--|
E|-3-3--------------------------|

e|-1-1---1-1---1-1---1-1---1-1---1-1-|
B|-3-3---1-1---3-3---1-1---3-3---1-1-|
G|-3-3---2-2---3-3---2-2---3-3---2-2-|
D|-0-0---3-3---0-0---3-3---0-0---3-3-|
A|-1-1---0-0---1-1---0-0---1-1---0-0-|
E|-------1-1---------1-1---------1-1-|

e|-3--3--0--0--------------------------|
B|-0--0--2--2--2-----------------------|
G|-0--0--2--2--2-----------------------|
D|-0--0--2--2--2-----------------------|
A|-2--2--0--0--0-----------------------|
E|-3--3--------------------------------|





Calificar esta versión:
Aviso: Este fichero es trabajo propio de su transcriptor y representa su interpretación personal de la canción. El material contenido en esta página es para exclusivo uso privado, por lo que se prohibe su reproducción o retransmisión, así como su uso para fines comerciales.