Devuelveme A Mi Chica, Hombres G (acordes) (ver 5)

Autor: Mr Armando Rock | 45624 visualizaciones

aambbdmfggsosmgm


Intro: Dm Am Dm Am Dm
 Dm                              Am
   Estoy llorando en mi habitación
 Dm                          Am   
   todo se nubla a mi alrededor
Am-G#m-Gm                   Dm     
   Ella se fue con un niño pijo
Am-G#m-Gm
en un Ford Fiesta blanco
Am  
   y un jersey amarillo

 Dm                         Am
   Por el parque los veo pasar
 Dm                           Am  
   cuando se besan lo paso fatal
Am-G#m-Gm                   Dm    
   Voy a vengarme de ese marica
Gm        
   voy a llenarle el cuello
Am
   de polvos pica pica

Coro:
    Bb        F   
   Sufre, mamón
      Bb              F   
   devuélveme a mi chica
      Bb         F
   o te retorcerás 
          G          A 
   entre polvos pica-pica

Solo de Guitarra [Tienen que tocarlo rapido]

e|-10-----------------------------|
B|---10---------------------------|
G|------10--/12-10-12-10?12/14-14-|
D|--------------------------------|
A|--------------------------------|
E|--------------------------------|

e|-/10-10-10h13-10---------------------|-5-4----------3----|
B|-------------------------------------|-5-4----3-------3--|
G|----------------10-12-10?12/14-16-14-|-5-4-3-----3------3|
D|-------------------------------------|-------------------|
A|-------------------------------------|-------------------|
E|-------------------------------------|-------------------|

e|-------------10-----|---------3-----|-------------------3/4/5-|
B|-----10--------10---|----3------3---|-------------3/4/5-------|
G|-/10-----10------10-|--3----3-----3-|-------0/3/5-------------|
D|--------------------|---------------|-4?5---------------------|
A|--------------------|---------------|-------------------------|
E|--------------------|---------------|-------------------------|

e|-/7--/8?--8/9/10---/12-10vv-|
B|----------------------------|
G|----------------------------|
D|----------------------------|
A|----------------------------|
E|----------------------------|
ESTOS ACORDES VAN MIENTRAS SE TOCA EL SOLO 
Dm Am Dm Am  Am-G#m-Gm Dm  Gm Am

 Dm                   Am
   Le quemamos su jersey
 Dm                        Am
   se ha comprado cinco o seis.

Am-G#m-Gm                Dm
   Voy a destrozarle el coche
Gm
   lo tengo preparado
Am   
   voy esta noche

 Dm                           Am  
    te reirás nunca mas de mi 
 Dm                        Am
   lo siento nene vas a morir
Am-G#m-Gm                         Dm
    me quitaste lo que mas quería
Gm
   y volverá conmigo
Am   
   volverá algún día
 
coro:
    Bb        F   
   Sufre, mamón
      Bb              F   
   devuélveme a mi chica
      Bb         F
   o te retorcerás 
          G          A 
   entre polvos pica-pica

    Bb        F   
   Sufre, mamón
      Bb              F   
   devuélveme a mi chica
      Bb         F
   o te retorcerás 
          G          A    Dm
   entre polvos pica-pica





Calificar esta versión:
Aviso: Este fichero es trabajo propio de su transcriptor y representa su interpretación personal de la canción. El material contenido en esta página es para exclusivo uso privado, por lo que se prohibe su reproducción o retransmisión, así como su uso para fines comerciales.