Himno Nacional Argentino, Himnos Nacionales (tablatura) (ver 5)

Autor: Anónimo | 23632 visualizaciones



Aca les paso mi mas humilde transcripcion del Himno Nacional Argentino.
Cualquier duda escribanme.


e|----------|-----------|--------------|-----9--------------|
b|---9---12-|-9-10------|--------------|---9---12-10--------|
g|-9---9----|------11-8-|-8-8-8-9-11-9-|-------------11-----|
D|----------|-----------|--------------|--------------------|
A|----------|-----------|--------------|--------------------|
E|----------|-----------|--------------|-0------------------|


e|---------------------------|---------------------------------|
b|-12-10-9---10-9----10-9----|-------------9-10-12-10----------|
g|---------9------11------11-|------8-9-11------------11-11-11-|
D|---------------------------|-9-11----------------------------|
A|---------------------------|---------------------------------|
E|---------------------------|---------------------------------|


e|-----------------------------------|----------------------|
b|-9/10-12-10----------9/10-12-11-10-|-9--------------------|
g|------------11-11-11---------------|---11-9-9-9-9-9-9-9-9-|
D|-----------------------------------|----------------------|
A|-----------------------------------|----------------------|
E|-----------------------------------|----------------------|

e|-------------------------------------|---------------------------|
b|-----9-9------10-9-------------------|-------10-10-9----9--------|
g|-9-9-----11-9------11-11-11-11-11-11-|-11-11---------11---9-9-9-9|
D|-------------------------------------|---------------------------|
A|-------------------------------------|---------------------------|
E|-------------------------------------|---------------------------|


e|---------------|---------------|---------------|----------------|
b|-10-9----------|-10-9----------|-12-10-9-9-9-9-|-12-10-9-9-9-9-9|
g|------11-11-11-|------11-11-11-|---------------|----------------|
D|---------------|---------------|---------------|----------------|
A|---------------|---------------|---------------|----------------|
E|---------------|---------------|---------------|----------------|

                                       |---------- X2---------|
e|----------------|----------------12-|------------------------|
b|-12-10-10-10-10-|-12-10-10-10-10----|------9-12-12-9/10------|
g|----------------|-------------------|-9/11--------------11-9-|
D|----------------|-------------------|------------------------|
A|----------------|-------------------|------------------------|
E|----------------|-------------------|------------------------|


e|-----------------|--------------------------------|-------|
b|-9---9---9-------|------------9-------------------|-------|
g|---9---9---9-9-9-|------8-9-9---11-9-8------------|-------|
D|-----------------|-9/11----------------11-9-------|---9-7-|
A|-----------------|--------------------------11----|-11----|
E|-----------------|-----------------------------12-|-------|


e|--------|----------|--------------------------------------|
b|--------|----------|--------------------------------------|
g|--------|------8-9-|--------------------------------------|
D|-7-11-9-|-9-11-----|------------------9-8-8-11-11-9-------|
A|--------|----------|-------9-11-11-11---------------------|
E|--------|----------|-12-12--------------------------------|


e|--------------------------|--------------------------------|
b|--------------------------|--------------------------------|
g|---8-------9--------------|----------8-9-------------------|
D|-9---11-11---8-8-11-9-9-9-|-9-9-9-11-----9-10-9------------|
A|--------------------------|---------------------12-10-10-9-|
E|--------------------------|--------------------------------|


e|-----------------|----------------------------------------|
b|-----------------|----------------------------------------|
g|-----9-11/12-----|-----9-9-9-9-11-11-11/12-9--------------|
D|-9-9---------8/9-|-9-9------------------------------------|
A|-----------------|----------------------------------------|
E|-----------------|----------------------------------------|


e|-------------------------|--------------------------------|
b|-------------------------|---------------9-11-9-8-9-------|
g|-----9-9-9-11-11-11/12-9-|-9-12-12-11-11------------9-----|
D|-9-9---------------------|--------------------------------|
A|-------------------------|--------------------------------|
E|-------------------------|--------------------------------|


e|----------------------------------------------------------|
b|----------------------------------------------------------|
g|------8-9-9-9-9-8-----------------------------------------|
D|-9-11-------------11-9----9----9--------------------------|
A|-----------------------11---11---11/12--------------------|
E|----------------------------------------------------------|


e|----------------------------|-----------------------------|
b|-------------9-9------------|-9/12-9----------10-9-10-9---|
g|-----------9-----11-9-8-9-9-|--------11-11-11-----------11|
D|----11-9-9------------------|-----------------------------|
A|-12-------------------------|-----------------------------|
E|----------------------------|-----------------------------|


e|------------------------|---------------------------------|
b|------9-10-12-10-9------|-9/12-9-------9-10-9-10----------|
g|-9-11--------------11-9-|--------11-11-----------11-9-9-9-|
D|------------------------|---------------------------------|
A|------------------------|---------------------------------|
E|------------------------|---------------------------------|

e|---------------|-------------|----------------------------|
b|---------------|-------------|-----9--------9-9-----------|
g|---------------|-8-9-8-9-8-9-|-9-9---9----9---------------|
D|-7/6-7-6-7-6-7-|-------------|---------11-----------------|
A|---------------|-------------|----------------------------|
E|---------------|-------------|----------------------------|

e|-----------------|----------------|-----------------------|
b|-----9---------9-|---9------------|-----------------------|
g|-9-9---9-----9---|-9---11-9-8-6---|-9-9-8-----------------|
D|----------11-----|--------------9-|-------11-11-9-9-------|
A|-----------------|----------------|-----------------12-12-|
E|-----------------|----------------|-----------------------|

e|------------------|---------------------------------------|
b|------------------|---------------------9/10-10-9---------|
g|------------------|------8-9-9-9-8-8-9------------11-9----|
D|----9-11-9-11-9---|-9-11-------------------------------9--|
A|-11-------------9-|---------------------------------------|
E|------------------|---------------------------------------|

e|--------|-------------------------|-----------------------|
b|--------|-9/10-10-9---------------|-9---9---9-------------|
g|----8-9-|-----------11-9------8-9-|---9---9---9-9-9-------|
D|-11-----|----------------9-11-----|-----------------------|
A|--------|-------------------------|-----------------------|
E|--------|-------------------------|-----------------------|


Rodrigo
Mayo 4, 2011





Calificar esta versión:
Aviso: Este fichero es trabajo propio de su transcriptor y representa su interpretación personal de la canción. El material contenido en esta página es para exclusivo uso privado, por lo que se prohibe su reproducción o retransmisión, así como su uso para fines comerciales.