Himno Nacional Argentino, Himnos Nacionales (tablatura) (ver 2)

Autor: Anónimo | 38963 visualizaciones



1|--------3--------------------|
2|---5-------6-3-----------3---|
3|-5---5---------4-4-4-4-4---5-|
4|-----------------------------|
5|-----------------------------|
6|-----------------------------|

|---5-3-2-1---3----------------------------0-1-3-1-----0-3-1-----|
|---5-------3---5--6-5-3--6-5-3------0-1-3---------3-3-------3-3-|
|-5--------------5--------0-0-0--0-2-----------------------------|
|----------------------------------------------------------------|
|----------------------------------------------------------------|
|----------------------------------------------------------------|

1|-0-3-2-1-|
2|---------|
3|---------|
4|---------|
5|---------|
6|---------|

|-0------------0----------------3-1-00000000__---3-1-00000000__---5-3-11111111__-----|
|---3-11111111__---3-1111111__-------------------------------------------------------|
|------------------------------------------------------------------------------------|
|------------------------------------------------------------------------------------|
|------------------------------------------------------------------------------------|
|------------------------------------------------------------------------------------|

1|-5-3-11111111__---7-5-3333333__---7-5-333333_---7-8~-|
2|-----------------------------------------------------|
3|-----------------------------------------------------|
4|-----------------------------------------------------|
5|-----------------------------------------------------|
6|-----------------------------------------------------|

|-----------------------------------------|
|--------5-8-6---------------5-8-6--------|
|------5-------7-----------5-------7------|
|----5-----------9-10----5-----------9----|
|--7-------------------7---------------10-|
|-----------------------------------------|

1|------------------------------|||
2|-5---5---5--------------------|||
3|---5---5---5---5--0-----------|||
4|---------------------5-5------|||
5|---------------------3-3------|||
6|------------------------------|||

Bueno, esto es el intro del HIMNO NACIONAL ARGENTINO
dentro de poco voy a mandar la parte cantada, lo que pasa que es muy dificil por los cambios
pero voy a ver como hago.

saludos al FER, EVE, BARBARA, DIEGO, TATO, JOSE, y chau, que les valla bien con el himno





Calificar esta versión:
Aviso: Este fichero es trabajo propio de su transcriptor y representa su interpretación personal de la canción. El material contenido en esta página es para exclusivo uso privado, por lo que se prohibe su reproducción o retransmisión, así como su uso para fines comerciales.