Himno Nacional Argentino, Himnos Nacionales (bajo)

Autor: Anónimo | 32924 visualizaciones



Este es una version que tabulé del Himno Nacional Argentino,
para Bajo electrico. Está en LA, creo que la que se toca generalmente
es en SOL. Cualquier cosa mandenme un mail

g|----------------------------------11--9--8-7---9--7-6--|
d|------2--0---------------------11------------9--------7|
a|0-4-0------2----------2--0--0--------------------------|
E|-------------4---4--4-------0--------------------------|

g|--------------------------------7-9-7--------9-7-------9-7------9-8-7|
d|12-11-9/--12-11-9/--------7-9-11------9-9-11----9-9-11----9-9h11-----|
a|12-12-12/-12-12-12/-7-9-11-------------------------------------------|
E|---------------------------------------------------------------------|

(parte movidita)

g|------------------------------------------------------------------|
d|------------------------------------------------------------------|
a|4-2-00000000-777-444-0--4-4--7-7--4-4--5-3-222222222-2-2--5-5--2-2|
E|------------------------------------------------------------------|



g|---------------------------------------------------------------------|
d|---------------------------------------------------------------------|
a|42-0000-42-0000-53-2222-53-2222-75-4444-75-4444-97-5555-11-9-7777--12|
E|---------------------------------------------------------------------|

g|-----------------------------------------------------------------------|
d|----------------------------------------------------------------------7|
a|-------5--7-7--7-5----------------5--7-7-7-5--------------------------7|
E|-5-7-9-------------9-7-5----5-7-9------------9-7-5---9--5--9--5--9--5--|





Calificar esta versión:
Aviso: Este fichero es trabajo propio de su transcriptor y representa su interpretación personal de la canción. El material contenido en esta página es para exclusivo uso privado, por lo que se prohibe su reproducción o retransmisión, así como su uso para fines comerciales.