Himno Nacional Argentino, Himnos Nacionales (bajo) (ver 2)

Autor: Anónimo | 29417 visualizaciones



Himno nacional argentino... VAMOS ARGENTINA CARAJOOO!

G|-------------12-14~--------------------------
D|--12~~--16~~---------------------------------
A|-------------10-12~-12-10--------------------
E|--10~~--14~~--------------12-12-12~-12/15-13~

G|----16-14----------14----------------------------------
D|-17-------18-17-14----16-12~-17~-16~-14~-17~-16~-14~---
A|-------------------------------------------------------
E|-------------------------------------------------------

G|------------14-14~------------14~------------14~-13~-12~---
D|------141617------17-14----14----17-14----14---------------
A|----16------------------16-------------16------------------
E|-17--------------------------------------------------------

G|------------------------11-11--14-14--11-11-
D|-12-12-121212-12-121212---------------------
A|-12-----------------------------------------
E|-10~----------------------------------------

G|-----------------------------------------------
D|-14-14-141414-14-141414-14-14--17-17--14-14----
A|-14--------------------------------------------
E|-12~-------------------------------------------

G|------------------------------------------------------------
D|-16-14-12121212-16-14-12121212-17-15-14141414-17-15-14141414
A|------------------------------------------------------------
E|------------------------------------------------------------

G|---------------------------------
D|-19-17-16161616-19-17-16161616---
A|---------------------------------
E|---------------------------------

G|-16-14-12121212-18-16-14141414-19~
D|----------------------------------
A|----------------------------------
E|----------------------------------

G|----------12-1414x-14-12--------------------12-1414x-14-12---------
D|-12-14-16---------------16-14-12x-12-14-16----------------16-14-12x
A|-------------------------------------------------------------------
E|-------------------------------------------------------------------

G|------------------------------
D|-16-12-16-12-16-12~-12~-12-12-
A|------------------------12-12-
E|------------------------------
Bueno gente.. eso es todo.. es mi primer tablatura ,
mi segunda cancion sacada de oido y creo que esta bastante
bien.. pero eso lo deciden ustedes.. chau gente y hasta la vista
PD: las partes en las qe se toca mas de una cuerda
se pueden anular.. como ustedes quieran, yo la hice asi para qe
suene mas real... como el sonido del piano!!
Chau y Suerte
Gabriel ... ARGENTINO HASTA LAS PELOTAS CARAJO!!!!!





Calificar esta versión:
Aviso: Este fichero es trabajo propio de su transcriptor y representa su interpretación personal de la canción. El material contenido en esta página es para exclusivo uso privado, por lo que se prohibe su reproducción o retransmisión, así como su uso para fines comerciales.