El Padrino, Guns N´ Roses (tablatura) (ver 6)

Autor: andresmetal | 45395 visualizaciones

Por fin despues de consultar muchos sitios esta es la version real que la disfruten y que descresten a todos sus amigos y familiares.


|-----------------------------------------------------------|
|-15---14-15-16--15-15---------15---14-15-16--15-15---------|
|----------------------15---------------------------14------|
|-----------------------------------------------------------|
|-----------------------------------------------------------|
|-----------------------------------------------------------|


|-----------------------------------------------------------|
|-15---14-15-18--15-14-17-15---------14-15-14---------------|
|---------------------------14-15-14------------------------|
|-----------------------------------------------------------|
|-----------------------------------------------------------|
|-----------------------------------------------------------|


|----10-13-12-10-13-10-12-10--------------------------------|
|-10--------------------------------11-13-10----------------|
|-----------------------------------------------------------|
|-----------------------------------------------------------|
|-----------------------------------------------------------|
|-----------------------------------------------------------|

                             
|----10-13-12-10-13-10-12-10--------------------------------|
|-10---------------------------------10-9-8-----------------|
|-----------------------------------------------------------|
|-----------------------------------------------------------|
|-----------------------------------------------------------|
|-----------------------------------------------------------|

                    
|---7-10--12---7-11-12--------------------------------------|
|-8----------8----------------------------------------------|
|-----------------------------------------------------------|
|-----------------------------------------------------------|
|-----------------------------------------------------------|
|-----------------------------------------------------------|

              
|-10-10-9-8-10/12-10----------------------------------------|
|-------------------------10----10-13-10-8----8-11-9-10-----|
|-----------------------------------------------------------|
|-----------------------------------------------------------|
|-----------------------------------------------------------|
|-----------------------------------------------------------|

                                
|----10-13-12-10-13-10-12-10--------------------------------|
|-10--------------------------------11-13-10----------------|
|-----------------------------------------------------------|
|-----------------------------------------------------------|
|-----------------------------------------------------------|
|-----------------------------------------------------------|

                             
|----10-13-12-10-13-10-12-10--------------------------------|
|-10---------------------------------10-9-8-----------------|
|-----------------------------------------------------------|
|-----------------------------------------------------------|
|-----------------------------------------------------------|
|-----------------------------------------------------------|

  
|---7-10--12---7-11-12--------------------------------------|
|-8----------8----------------------------------------------|
|-----------------------------------------------------------|
|-----------------------------------------------------------|
|-----------------------------------------------------------|
|-----------------------------------------------------------|

Cualquier inquietud dejenla aca abajo que les dare respuesta lo mas antes posible.....que la disfruten...!   real version.

Comentarios del colaborador: la version real

Calificar esta versión:
Aviso: Este fichero es trabajo propio de su transcriptor y representa su interpretación personal de la canción. El material contenido en esta página es para exclusivo uso privado, por lo que se prohibe su reproducción o retransmisión, así como su uso para fines comerciales.
Más versiones de El Padrino, Guns N´ Roses
El Padrino
tablatura
El Padrino (ver 2)
tablatura
El Padrino (ver 3)
tablatura
El Padrino (ver 4)
tablatura
El Padrino (ver 5)
tablatura
El Padrino (ver 6)
tablatura
Descubre más canciones de Guns N´ Roses