El Padrino, Guns N´ Roses (tablatura) (ver 5)

Autor: muse_juan | 40168 visualizaciones

 --9---8-9-10---9-9-------------------------
 ----------------9--------------------------
 -------------------------------------------  x2
 -------------------------------------------
 -------------------------------------------
 -------------------------------------------



 --9---8-9-11----9-9----8-8--9--------------
 -----------------10-9----9-----------------
 -------------------------------------------
 -------------------------------------------
 ------------------------------------------- 
 -------------------------------------------


 ---9--12-11-9-12-9-11-9--------------------
 --9-----------------------10--12-9---------
 -9-----------------------------------------
 -------------------------------------------
 -------------------------------------------
 -------------------------------------------


 ---9--12-11-9-12-9-11-9--------------------
 --9-----------------------9--8-7-----------
 -9-----------------------------------------
 -------------------------------------------
 -------------------------------------------
 -------------------------------------------


 ------8-11-------8-9-----------------------------
 --7-10-------7-10--------12--10-9-10-9-9---------
 ------------------------9------------------------
 ----------------------11-------------------10-11-
 -------------------------------------------------
 -------------------------------------------------


 --9-8-7--11-7-5-4---4-3-2------------------------
 -------------------------------------------------
 -------------------------------------------------
 -------------------------------------------------
 -------------------------------------------------
 -------------------------------------------------

Comentarios del colaborador: lo siento pero asta ahi me se cuando me sepa lo demas aver si lo pongo mientras disfruten este cacho

Calificar esta versión:
Aviso: Este fichero es trabajo propio de su transcriptor y representa su interpretación personal de la canción. El material contenido en esta página es para exclusivo uso privado, por lo que se prohibe su reproducción o retransmisión, así como su uso para fines comerciales.
Más versiones de El Padrino, Guns N´ Roses
El Padrino
tablatura
El Padrino (ver 2)
tablatura
El Padrino (ver 3)
tablatura
El Padrino (ver 4)
tablatura
El Padrino (ver 5)
tablatura
El Padrino (ver 6)
tablatura
Descubre más canciones de Guns N´ Roses