El Padrino, Guns N´ Roses (tablatura)

Autor: juanjuan | 33530 visualizaciones

hola soy nuevo les dejo aca el padrino de slash perdonen si esta mal es qe lo ise en un cyber y sin mi guitarra :D bueno aca ba
6 -------------------------------------------
5 -------------------------------------------
4 -------------------------------------------
3 ----------- 15-----------15---------------- 
2 -14-13-14-14--14-13-14-14------------------
1 -------------------------------------------

Recueren esto lo tienen q hacer Lento Bien relaxs xD^^


6 -------------------------------
5 -------------------------------
4 -------------------------------
3 -----12------------------------
2 14-13--14-13-14-14-13-9-9-15-13
1 -------------------------------

Aca le recomiendo en el 12 Q rentngan el sonido.. en una pausa,
emm i en  la q c repite la cuerda hagan lo mismo...pero
recuerden aganlo tranki :P


6 ---------------------------
5 ---------------------------
4 ---------------------------
3 ---------------------------
2 9-------------------10-12-9
1 -9-12-11-9-12-9-11-9-------


6 ---------------------------
5 ---------------------------
4 ---------------------------
3 ---------------------------
2 9-------------------9-8-6--
1 -9-12-11-9-12-9-11-9-------


miren le falta un pedaso luego se lo pongo o saquenlo de oido es facil lo toco con la guitarra y se los paso aganlo tranki y  despacio
Calificar esta versión:
Aviso: Este fichero es trabajo propio de su transcriptor y representa su interpretación personal de la canción. El material contenido en esta página es para exclusivo uso privado, por lo que se prohibe su reproducción o retransmisión, así como su uso para fines comerciales.
Más versiones de El Padrino, Guns N´ Roses
El Padrino
tablatura
El Padrino (ver 2)
tablatura
El Padrino (ver 3)
tablatura
El Padrino (ver 4)
tablatura
El Padrino (ver 5)
tablatura
El Padrino (ver 6)
tablatura
Descubre más canciones de Guns N´ Roses